ISO-10303-21;
HEADER;
/* Generated by software containing ST-Developer
 * from STEP Tools, Inc. (www.steptools.com) 
 */

FILE_DESCRIPTION(
/* description */ ('U-profiler acc. to EN 13706'),
/* implementation_level */ '2;1');

FILE_NAME(
/* name */ 
'C:\\WF\\Designs\\Vare\\test Mirfit\\Profiles for e-com\\U-profiles\\U
240x72x12.stp',
/* time_stamp */ '2019-09-23T08:49:01+02:00',
/* author */ ('mma'),
/* organization */ (''),
/* preprocessor_version */ 'ST-DEVELOPER v16.5',
/* originating_system */ 'Autodesk Inventor 2017',
/* authorisation */ '0 mm^3');

FILE_SCHEMA (('AUTOMOTIVE_DESIGN { 1 0 10303 214 3 1 1 }'));
ENDSEC;

DATA;
#10=MECHANICAL_DESIGN_GEOMETRIC_PRESENTATION_REPRESENTATION('',(#13),#589);
#11=SHAPE_REPRESENTATION_RELATIONSHIP('SRR','None',#598,#12);
#12=ADVANCED_BREP_SHAPE_REPRESENTATION('',(#14),#588);
#13=STYLED_ITEM('',(#607),#14);
#14=MANIFOLD_SOLID_BREP('Solid1',#343);
#15=PLANE('',#354);
#16=PLANE('',#358);
#17=PLANE('',#362);
#18=PLANE('',#366);
#19=PLANE('',#370);
#20=PLANE('',#374);
#21=PLANE('',#378);
#22=PLANE('',#382);
#23=PLANE('',#383);
#24=PLANE('',#384);
#25=FACE_OUTER_BOUND('',#43,.T.);
#26=FACE_OUTER_BOUND('',#44,.T.);
#27=FACE_OUTER_BOUND('',#45,.T.);
#28=FACE_OUTER_BOUND('',#46,.T.);
#29=FACE_OUTER_BOUND('',#47,.T.);
#30=FACE_OUTER_BOUND('',#48,.T.);
#31=FACE_OUTER_BOUND('',#49,.T.);
#32=FACE_OUTER_BOUND('',#50,.T.);
#33=FACE_OUTER_BOUND('',#51,.T.);
#34=FACE_OUTER_BOUND('',#52,.T.);
#35=FACE_OUTER_BOUND('',#53,.T.);
#36=FACE_OUTER_BOUND('',#54,.T.);
#37=FACE_OUTER_BOUND('',#55,.T.);
#38=FACE_OUTER_BOUND('',#56,.T.);
#39=FACE_OUTER_BOUND('',#57,.T.);
#40=FACE_OUTER_BOUND('',#58,.T.);
#41=FACE_OUTER_BOUND('',#59,.T.);
#42=FACE_OUTER_BOUND('',#60,.T.);
#43=EDGE_LOOP('',(#221,#222,#223,#224));
#44=EDGE_LOOP('',(#225,#226,#227,#228));
#45=EDGE_LOOP('',(#229,#230,#231,#232));
#46=EDGE_LOOP('',(#233,#234,#235,#236));
#47=EDGE_LOOP('',(#237,#238,#239,#240));
#48=EDGE_LOOP('',(#241,#242,#243,#244));
#49=EDGE_LOOP('',(#245,#246,#247,#248));
#50=EDGE_LOOP('',(#249,#250,#251,#252));
#51=EDGE_LOOP('',(#253,#254,#255,#256));
#52=EDGE_LOOP('',(#257,#258,#259,#260));
#53=EDGE_LOOP('',(#261,#262,#263,#264));
#54=EDGE_LOOP('',(#265,#266,#267,#268));
#55=EDGE_LOOP('',(#269,#270,#271,#272));
#56=EDGE_LOOP('',(#273,#274,#275,#276));
#57=EDGE_LOOP('',(#277,#278,#279,#280));
#58=EDGE_LOOP('',(#281,#282,#283,#284));
#59=EDGE_LOOP('',(#285,#286,#287,#288,#289,#290,#291,#292,#293,#294,#295,
#296,#297,#298,#299,#300));
#60=EDGE_LOOP('',(#301,#302,#303,#304,#305,#306,#307,#308,#309,#310,#311,
#312,#313,#314,#315,#316));
#61=LINE('',#493,#93);
#62=LINE('',#496,#94);
#63=LINE('',#499,#95);
#64=LINE('',#501,#96);
#65=LINE('',#502,#97);
#66=LINE('',#507,#98);
#67=LINE('',#511,#99);
#68=LINE('',#513,#100);
#69=LINE('',#514,#101);
#70=LINE('',#519,#102);
#71=LINE('',#523,#103);
#72=LINE('',#525,#104);
#73=LINE('',#526,#105);
#74=LINE('',#531,#106);
#75=LINE('',#535,#107);
#76=LINE('',#537,#108);
#77=LINE('',#538,#109);
#78=LINE('',#543,#110);
#79=LINE('',#547,#111);
#80=LINE('',#549,#112);
#81=LINE('',#550,#113);
#82=LINE('',#555,#114);
#83=LINE('',#559,#115);
#84=LINE('',#561,#116);
#85=LINE('',#562,#117);
#86=LINE('',#567,#118);
#87=LINE('',#571,#119);
#88=LINE('',#573,#120);
#89=LINE('',#574,#121);
#90=LINE('',#579,#122);
#91=LINE('',#582,#123);
#92=LINE('',#583,#124);
#93=VECTOR('',#391,10.);
#94=VECTOR('',#394,10.);
#95=VECTOR('',#397,10.);
#96=VECTOR('',#398,10.);
#97=VECTOR('',#399,10.);
#98=VECTOR('',#404,10.);
#99=VECTOR('',#409,10.);
#100=VECTOR('',#410,10.);
#101=VECTOR('',#411,10.);
#102=VECTOR('',#416,10.);
#103=VECTOR('',#421,10.);
#104=VECTOR('',#422,10.);
#105=VECTOR('',#423,10.);
#106=VECTOR('',#428,10.);
#107=VECTOR('',#433,10.);
#108=VECTOR('',#434,10.);
#109=VECTOR('',#435,10.);
#110=VECTOR('',#440,10.);
#111=VECTOR('',#445,10.);
#112=VECTOR('',#446,10.);
#113=VECTOR('',#447,10.);
#114=VECTOR('',#452,10.);
#115=VECTOR('',#457,10.);
#116=VECTOR('',#458,10.);
#117=VECTOR('',#459,10.);
#118=VECTOR('',#464,10.);
#119=VECTOR('',#469,10.);
#120=VECTOR('',#470,10.);
#121=VECTOR('',#471,10.);
#122=VECTOR('',#476,10.);
#123=VECTOR('',#481,10.);
#124=VECTOR('',#482,10.);
#125=CIRCLE('',#352,8.);
#126=CIRCLE('',#353,8.);
#127=CIRCLE('',#356,8.);
#128=CIRCLE('',#357,8.);
#129=CIRCLE('',#360,2.);
#130=CIRCLE('',#361,2.);
#131=CIRCLE('',#364,2.);
#132=CIRCLE('',#365,2.);
#133=CIRCLE('',#368,4.);
#134=CIRCLE('',#369,4.);
#135=CIRCLE('',#372,4.);
#136=CIRCLE('',#373,4.);
#137=CIRCLE('',#376,2.);
#138=CIRCLE('',#377,2.);
#139=CIRCLE('',#380,2.);
#140=CIRCLE('',#381,2.);
#141=VERTEX_POINT('',#489);
#142=VERTEX_POINT('',#490);
#143=VERTEX_POINT('',#492);
#144=VERTEX_POINT('',#494);
#145=VERTEX_POINT('',#498);
#146=VERTEX_POINT('',#500);
#147=VERTEX_POINT('',#504);
#148=VERTEX_POINT('',#506);
#149=VERTEX_POINT('',#510);
#150=VERTEX_POINT('',#512);
#151=VERTEX_POINT('',#516);
#152=VERTEX_POINT('',#518);
#153=VERTEX_POINT('',#522);
#154=VERTEX_POINT('',#524);
#155=VERTEX_POINT('',#528);
#156=VERTEX_POINT('',#530);
#157=VERTEX_POINT('',#534);
#158=VERTEX_POINT('',#536);
#159=VERTEX_POINT('',#540);
#160=VERTEX_POINT('',#542);
#161=VERTEX_POINT('',#546);
#162=VERTEX_POINT('',#548);
#163=VERTEX_POINT('',#552);
#164=VERTEX_POINT('',#554);
#165=VERTEX_POINT('',#558);
#166=VERTEX_POINT('',#560);
#167=VERTEX_POINT('',#564);
#168=VERTEX_POINT('',#566);
#169=VERTEX_POINT('',#570);
#170=VERTEX_POINT('',#572);
#171=VERTEX_POINT('',#576);
#172=VERTEX_POINT('',#578);
#173=EDGE_CURVE('',#141,#142,#125,.T.);
#174=EDGE_CURVE('',#142,#143,#61,.T.);
#175=EDGE_CURVE('',#144,#143,#126,.T.);
#176=EDGE_CURVE('',#141,#144,#62,.T.);
#177=EDGE_CURVE('',#142,#145,#63,.T.);
#178=EDGE_CURVE('',#145,#146,#64,.T.);
#179=EDGE_CURVE('',#143,#146,#65,.T.);
#180=EDGE_CURVE('',#145,#147,#127,.T.);
#181=EDGE_CURVE('',#147,#148,#66,.T.);
#182=EDGE_CURVE('',#146,#148,#128,.T.);
#183=EDGE_CURVE('',#147,#149,#67,.T.);
#184=EDGE_CURVE('',#149,#150,#68,.T.);
#185=EDGE_CURVE('',#148,#150,#69,.T.);
#186=EDGE_CURVE('',#149,#151,#129,.T.);
#187=EDGE_CURVE('',#151,#152,#70,.T.);
#188=EDGE_CURVE('',#150,#152,#130,.T.);
#189=EDGE_CURVE('',#151,#153,#71,.T.);
#190=EDGE_CURVE('',#153,#154,#72,.T.);
#191=EDGE_CURVE('',#152,#154,#73,.T.);
#192=EDGE_CURVE('',#153,#155,#131,.T.);
#193=EDGE_CURVE('',#156,#155,#74,.T.);
#194=EDGE_CURVE('',#154,#156,#132,.T.);
#195=EDGE_CURVE('',#155,#157,#75,.T.);
#196=EDGE_CURVE('',#157,#158,#76,.T.);
#197=EDGE_CURVE('',#156,#158,#77,.T.);
#198=EDGE_CURVE('',#157,#159,#133,.T.);
#199=EDGE_CURVE('',#159,#160,#78,.T.);
#200=EDGE_CURVE('',#158,#160,#134,.T.);
#201=EDGE_CURVE('',#159,#161,#79,.T.);
#202=EDGE_CURVE('',#161,#162,#80,.T.);
#203=EDGE_CURVE('',#160,#162,#81,.T.);
#204=EDGE_CURVE('',#161,#163,#135,.T.);
#205=EDGE_CURVE('',#163,#164,#82,.T.);
#206=EDGE_CURVE('',#162,#164,#136,.T.);
#207=EDGE_CURVE('',#163,#165,#83,.T.);
#208=EDGE_CURVE('',#165,#166,#84,.T.);
#209=EDGE_CURVE('',#164,#166,#85,.T.);
#210=EDGE_CURVE('',#165,#167,#137,.T.);
#211=EDGE_CURVE('',#167,#168,#86,.T.);
#212=EDGE_CURVE('',#166,#168,#138,.T.);
#213=EDGE_CURVE('',#167,#169,#87,.T.);
#214=EDGE_CURVE('',#169,#170,#88,.T.);
#215=EDGE_CURVE('',#168,#170,#89,.T.);
#216=EDGE_CURVE('',#169,#171,#139,.T.);
#217=EDGE_CURVE('',#171,#172,#90,.T.);
#218=EDGE_CURVE('',#170,#172,#140,.T.);
#219=EDGE_CURVE('',#171,#141,#91,.T.);
#220=EDGE_CURVE('',#172,#144,#92,.T.);
#221=ORIENTED_EDGE('',*,*,#173,.T.);
#222=ORIENTED_EDGE('',*,*,#174,.T.);
#223=ORIENTED_EDGE('',*,*,#175,.F.);
#224=ORIENTED_EDGE('',*,*,#176,.F.);
#225=ORIENTED_EDGE('',*,*,#177,.T.);
#226=ORIENTED_EDGE('',*,*,#178,.T.);
#227=ORIENTED_EDGE('',*,*,#179,.F.);
#228=ORIENTED_EDGE('',*,*,#174,.F.);
#229=ORIENTED_EDGE('',*,*,#180,.T.);
#230=ORIENTED_EDGE('',*,*,#181,.T.);
#231=ORIENTED_EDGE('',*,*,#182,.F.);
#232=ORIENTED_EDGE('',*,*,#178,.F.);
#233=ORIENTED_EDGE('',*,*,#183,.T.);
#234=ORIENTED_EDGE('',*,*,#184,.T.);
#235=ORIENTED_EDGE('',*,*,#185,.F.);
#236=ORIENTED_EDGE('',*,*,#181,.F.);
#237=ORIENTED_EDGE('',*,*,#186,.T.);
#238=ORIENTED_EDGE('',*,*,#187,.T.);
#239=ORIENTED_EDGE('',*,*,#188,.F.);
#240=ORIENTED_EDGE('',*,*,#184,.F.);
#241=ORIENTED_EDGE('',*,*,#189,.T.);
#242=ORIENTED_EDGE('',*,*,#190,.T.);
#243=ORIENTED_EDGE('',*,*,#191,.F.);
#244=ORIENTED_EDGE('',*,*,#187,.F.);
#245=ORIENTED_EDGE('',*,*,#192,.T.);
#246=ORIENTED_EDGE('',*,*,#193,.F.);
#247=ORIENTED_EDGE('',*,*,#194,.F.);
#248=ORIENTED_EDGE('',*,*,#190,.F.);
#249=ORIENTED_EDGE('',*,*,#195,.T.);
#250=ORIENTED_EDGE('',*,*,#196,.T.);
#251=ORIENTED_EDGE('',*,*,#197,.F.);
#252=ORIENTED_EDGE('',*,*,#193,.T.);
#253=ORIENTED_EDGE('',*,*,#198,.T.);
#254=ORIENTED_EDGE('',*,*,#199,.T.);
#255=ORIENTED_EDGE('',*,*,#200,.F.);
#256=ORIENTED_EDGE('',*,*,#196,.F.);
#257=ORIENTED_EDGE('',*,*,#201,.T.);
#258=ORIENTED_EDGE('',*,*,#202,.T.);
#259=ORIENTED_EDGE('',*,*,#203,.F.);
#260=ORIENTED_EDGE('',*,*,#199,.F.);
#261=ORIENTED_EDGE('',*,*,#204,.T.);
#262=ORIENTED_EDGE('',*,*,#205,.T.);
#263=ORIENTED_EDGE('',*,*,#206,.F.);
#264=ORIENTED_EDGE('',*,*,#202,.F.);
#265=ORIENTED_EDGE('',*,*,#207,.T.);
#266=ORIENTED_EDGE('',*,*,#208,.T.);
#267=ORIENTED_EDGE('',*,*,#209,.F.);
#268=ORIENTED_EDGE('',*,*,#205,.F.);
#269=ORIENTED_EDGE('',*,*,#210,.T.);
#270=ORIENTED_EDGE('',*,*,#211,.T.);
#271=ORIENTED_EDGE('',*,*,#212,.F.);
#272=ORIENTED_EDGE('',*,*,#208,.F.);
#273=ORIENTED_EDGE('',*,*,#213,.T.);
#274=ORIENTED_EDGE('',*,*,#214,.T.);
#275=ORIENTED_EDGE('',*,*,#215,.F.);
#276=ORIENTED_EDGE('',*,*,#211,.F.);
#277=ORIENTED_EDGE('',*,*,#216,.T.);
#278=ORIENTED_EDGE('',*,*,#217,.T.);
#279=ORIENTED_EDGE('',*,*,#218,.F.);
#280=ORIENTED_EDGE('',*,*,#214,.F.);
#281=ORIENTED_EDGE('',*,*,#219,.T.);
#282=ORIENTED_EDGE('',*,*,#176,.T.);
#283=ORIENTED_EDGE('',*,*,#220,.F.);
#284=ORIENTED_EDGE('',*,*,#217,.F.);
#285=ORIENTED_EDGE('',*,*,#200,.T.);
#286=ORIENTED_EDGE('',*,*,#203,.T.);
#287=ORIENTED_EDGE('',*,*,#206,.T.);
#288=ORIENTED_EDGE('',*,*,#209,.T.);
#289=ORIENTED_EDGE('',*,*,#212,.T.);
#290=ORIENTED_EDGE('',*,*,#215,.T.);
#291=ORIENTED_EDGE('',*,*,#218,.T.);
#292=ORIENTED_EDGE('',*,*,#220,.T.);
#293=ORIENTED_EDGE('',*,*,#175,.T.);
#294=ORIENTED_EDGE('',*,*,#179,.T.);
#295=ORIENTED_EDGE('',*,*,#182,.T.);
#296=ORIENTED_EDGE('',*,*,#185,.T.);
#297=ORIENTED_EDGE('',*,*,#188,.T.);
#298=ORIENTED_EDGE('',*,*,#191,.T.);
#299=ORIENTED_EDGE('',*,*,#194,.T.);
#300=ORIENTED_EDGE('',*,*,#197,.T.);
#301=ORIENTED_EDGE('',*,*,#198,.F.);
#302=ORIENTED_EDGE('',*,*,#195,.F.);
#303=ORIENTED_EDGE('',*,*,#192,.F.);
#304=ORIENTED_EDGE('',*,*,#189,.F.);
#305=ORIENTED_EDGE('',*,*,#186,.F.);
#306=ORIENTED_EDGE('',*,*,#183,.F.);
#307=ORIENTED_EDGE('',*,*,#180,.F.);
#308=ORIENTED_EDGE('',*,*,#177,.F.);
#309=ORIENTED_EDGE('',*,*,#173,.F.);
#310=ORIENTED_EDGE('',*,*,#219,.F.);
#311=ORIENTED_EDGE('',*,*,#216,.F.);
#312=ORIENTED_EDGE('',*,*,#213,.F.);
#313=ORIENTED_EDGE('',*,*,#210,.F.);
#314=ORIENTED_EDGE('',*,*,#207,.F.);
#315=ORIENTED_EDGE('',*,*,#204,.F.);
#316=ORIENTED_EDGE('',*,*,#201,.F.);
#317=CYLINDRICAL_SURFACE('',#351,8.);
#318=CYLINDRICAL_SURFACE('',#355,8.);
#319=CYLINDRICAL_SURFACE('',#359,2.);
#320=CYLINDRICAL_SURFACE('',#363,2.);
#321=CYLINDRICAL_SURFACE('',#367,4.);
#322=CYLINDRICAL_SURFACE('',#371,4.);
#323=CYLINDRICAL_SURFACE('',#375,2.);
#324=CYLINDRICAL_SURFACE('',#379,2.);
#325=ADVANCED_FACE('',(#25),#317,.F.);
#326=ADVANCED_FACE('',(#26),#15,.T.);
#327=ADVANCED_FACE('',(#27),#318,.F.);
#328=ADVANCED_FACE('',(#28),#16,.T.);
#329=ADVANCED_FACE('',(#29),#319,.T.);
#330=ADVANCED_FACE('',(#30),#17,.T.);
#331=ADVANCED_FACE('',(#31),#320,.T.);
#332=ADVANCED_FACE('',(#32),#18,.T.);
#333=ADVANCED_FACE('',(#33),#321,.T.);
#334=ADVANCED_FACE('',(#34),#19,.T.);
#335=ADVANCED_FACE('',(#35),#322,.T.);
#336=ADVANCED_FACE('',(#36),#20,.T.);
#337=ADVANCED_FACE('',(#37),#323,.T.);
#338=ADVANCED_FACE('',(#38),#21,.T.);
#339=ADVANCED_FACE('',(#39),#324,.T.);
#340=ADVANCED_FACE('',(#40),#22,.T.);
#341=ADVANCED_FACE('',(#41),#23,.F.);
#342=ADVANCED_FACE('',(#42),#24,.T.);
#343=CLOSED_SHELL('',(#325,#326,#327,#328,#329,#330,#331,#332,#333,#334,
#335,#336,#337,#338,#339,#340,#341,#342));
#344=DATE_TIME_ROLE('creation_date');
#345=APPLIED_DATE_AND_TIME_ASSIGNMENT(#346,#344,(#600));
#346=DATE_AND_TIME(#347,#348);
#347=CALENDAR_DATE(2018,29,10);
#348=LOCAL_TIME(8,34,26.,#349);
#349=COORDINATED_UNIVERSAL_TIME_OFFSET(0,0,.BEHIND.);
#350=AXIS2_PLACEMENT_3D('placement',#487,#385,#386);
#351=AXIS2_PLACEMENT_3D('',#488,#387,#388);
#352=AXIS2_PLACEMENT_3D('',#491,#389,#390);
#353=AXIS2_PLACEMENT_3D('',#495,#392,#393);
#354=AXIS2_PLACEMENT_3D('',#497,#395,#396);
#355=AXIS2_PLACEMENT_3D('',#503,#400,#401);
#356=AXIS2_PLACEMENT_3D('',#505,#402,#403);
#357=AXIS2_PLACEMENT_3D('',#508,#405,#406);
#358=AXIS2_PLACEMENT_3D('',#509,#407,#408);
#359=AXIS2_PLACEMENT_3D('',#515,#412,#413);
#360=AXIS2_PLACEMENT_3D('',#517,#414,#415);
#361=AXIS2_PLACEMENT_3D('',#520,#417,#418);
#362=AXIS2_PLACEMENT_3D('',#521,#419,#420);
#363=AXIS2_PLACEMENT_3D('',#527,#424,#425);
#364=AXIS2_PLACEMENT_3D('',#529,#426,#427);
#365=AXIS2_PLACEMENT_3D('',#532,#429,#430);
#366=AXIS2_PLACEMENT_3D('',#533,#431,#432);
#367=AXIS2_PLACEMENT_3D('',#539,#436,#437);
#368=AXIS2_PLACEMENT_3D('',#541,#438,#439);
#369=AXIS2_PLACEMENT_3D('',#544,#441,#442);
#370=AXIS2_PLACEMENT_3D('',#545,#443,#444);
#371=AXIS2_PLACEMENT_3D('',#551,#448,#449);
#372=AXIS2_PLACEMENT_3D('',#553,#450,#451);
#373=AXIS2_PLACEMENT_3D('',#556,#453,#454);
#374=AXIS2_PLACEMENT_3D('',#557,#455,#456);
#375=AXIS2_PLACEMENT_3D('',#563,#460,#461);
#376=AXIS2_PLACEMENT_3D('',#565,#462,#463);
#377=AXIS2_PLACEMENT_3D('',#568,#465,#466);
#378=AXIS2_PLACEMENT_3D('',#569,#467,#468);
#379=AXIS2_PLACEMENT_3D('',#575,#472,#473);
#380=AXIS2_PLACEMENT_3D('',#577,#474,#475);
#381=AXIS2_PLACEMENT_3D('',#580,#477,#478);
#382=AXIS2_PLACEMENT_3D('',#581,#479,#480);
#383=AXIS2_PLACEMENT_3D('',#584,#483,#484);
#384=AXIS2_PLACEMENT_3D('',#585,#485,#486);
#385=DIRECTION('axis',(0.,0.,1.));
#386=DIRECTION('refdir',(1.,0.,0.));
#387=DIRECTION('center_axis',(0.,0.,1.));
#388=DIRECTION('ref_axis',(1.,2.77555756156288E-16,0.));
#389=DIRECTION('center_axis',(0.,0.,1.));
#390=DIRECTION('ref_axis',(1.,2.77555756156288E-16,0.));
#391=DIRECTION('',(0.,0.,-1.));
#392=DIRECTION('center_axis',(0.,0.,1.));
#393=DIRECTION('ref_axis',(1.,2.77555756156288E-16,0.));
#394=DIRECTION('',(0.,0.,-1.));
#395=DIRECTION('center_axis',(4.2188474935756E-16,-1.,0.));
#396=DIRECTION('ref_axis',(1.,3.5527136788005E-16,0.));
#397=DIRECTION('',(-1.,-4.21884749357559E-16,0.));
#398=DIRECTION('',(0.,0.,-1.));
#399=DIRECTION('',(-1.,-4.21884749357559E-16,0.));
#400=DIRECTION('center_axis',(0.,0.,1.));
#401=DIRECTION('ref_axis',(0.,1.,0.));
#402=DIRECTION('center_axis',(0.,0.,1.));
#403=DIRECTION('ref_axis',(0.,1.,0.));
#404=DIRECTION('',(0.,0.,-1.));
#405=DIRECTION('center_axis',(0.,0.,1.));
#406=DIRECTION('ref_axis',(0.,1.,0.));
#407=DIRECTION('center_axis',(1.,3.55271367880051E-16,0.));
#408=DIRECTION('ref_axis',(0.,1.,0.));
#409=DIRECTION('',(3.55271367880051E-16,-1.,0.));
#410=DIRECTION('',(0.,0.,-1.));
#411=DIRECTION('',(3.55271367880051E-16,-1.,0.));
#412=DIRECTION('center_axis',(0.,0.,1.));
#413=DIRECTION('ref_axis',(0.,1.,0.));
#414=DIRECTION('center_axis',(0.,0.,-1.));
#415=DIRECTION('ref_axis',(0.,1.,0.));
#416=DIRECTION('',(0.,0.,-1.));
#417=DIRECTION('center_axis',(0.,0.,-1.));
#418=DIRECTION('ref_axis',(0.,1.,0.));
#419=DIRECTION('center_axis',(1.11022302462516E-15,-1.,0.));
#420=DIRECTION('ref_axis',(1.,1.4210854715202E-15,0.));
#421=DIRECTION('',(-1.,-1.11022302462516E-15,0.));
#422=DIRECTION('',(0.,0.,-1.));
#423=DIRECTION('',(-1.,-1.11022302462516E-15,0.));
#424=DIRECTION('center_axis',(0.,0.,1.));
#425=DIRECTION('ref_axis',(1.,4.44089209850064E-15,0.));
#426=DIRECTION('center_axis',(0.,0.,-1.));
#427=DIRECTION('ref_axis',(1.,4.44089209850064E-15,0.));
#428=DIRECTION('',(0.,0.,1.));
#429=DIRECTION('center_axis',(0.,0.,-1.));
#430=DIRECTION('ref_axis',(1.,4.44089209850064E-15,0.));
#431=DIRECTION('center_axis',(-1.,0.,0.));
#432=DIRECTION('ref_axis',(0.,-1.,0.));
#433=DIRECTION('',(0.,1.,0.));
#434=DIRECTION('',(0.,0.,-1.));
#435=DIRECTION('',(0.,1.,0.));
#436=DIRECTION('center_axis',(0.,0.,1.));
#437=DIRECTION('ref_axis',(-4.44089209850063E-15,-1.,0.));
#438=DIRECTION('center_axis',(0.,0.,-1.));
#439=DIRECTION('ref_axis',(-4.44089209850063E-15,-1.,0.));
#440=DIRECTION('',(0.,0.,-1.));
#441=DIRECTION('center_axis',(0.,0.,-1.));
#442=DIRECTION('ref_axis',(-4.44089209850063E-15,-1.,0.));
#443=DIRECTION('center_axis',(-1.83642413609348E-16,1.,0.));
#444=DIRECTION('ref_axis',(-1.,-1.83642413609348E-16,0.));
#445=DIRECTION('',(1.,1.83642413609348E-16,0.));
#446=DIRECTION('',(0.,0.,-1.));
#447=DIRECTION('',(1.,1.83642413609348E-16,0.));
#448=DIRECTION('center_axis',(0.,0.,1.));
#449=DIRECTION('ref_axis',(-1.,-1.38777878078144E-16,0.));
#450=DIRECTION('center_axis',(0.,0.,-1.));
#451=DIRECTION('ref_axis',(-1.,-1.38777878078144E-16,0.));
#452=DIRECTION('',(0.,0.,-1.));
#453=DIRECTION('center_axis',(0.,0.,-1.));
#454=DIRECTION('ref_axis',(-1.,-1.38777878078144E-16,0.));
#455=DIRECTION('center_axis',(1.,2.69144975666705E-16,0.));
#456=DIRECTION('ref_axis',(0.,1.,0.));
#457=DIRECTION('',(2.69144975666705E-16,-1.,0.));
#458=DIRECTION('',(0.,0.,-1.));
#459=DIRECTION('',(2.69144975666705E-16,-1.,0.));
#460=DIRECTION('center_axis',(0.,0.,1.));
#461=DIRECTION('ref_axis',(8.88178419700124E-15,1.,0.));
#462=DIRECTION('center_axis',(0.,0.,-1.));
#463=DIRECTION('ref_axis',(8.88178419700124E-15,1.,0.));
#464=DIRECTION('',(0.,0.,-1.));
#465=DIRECTION('center_axis',(0.,0.,-1.));
#466=DIRECTION('ref_axis',(8.88178419700124E-15,1.,0.));
#467=DIRECTION('center_axis',(3.33066907387547E-15,-1.,0.));
#468=DIRECTION('ref_axis',(1.,2.8421709430404E-15,0.));
#469=DIRECTION('',(-1.,-3.33066907387547E-15,0.));
#470=DIRECTION('',(0.,0.,-1.));
#471=DIRECTION('',(-1.,-3.33066907387547E-15,0.));
#472=DIRECTION('center_axis',(0.,0.,1.));
#473=DIRECTION('ref_axis',(1.,0.,0.));
#474=DIRECTION('center_axis',(0.,0.,-1.));
#475=DIRECTION('ref_axis',(1.,0.,0.));
#476=DIRECTION('',(0.,0.,-1.));
#477=DIRECTION('center_axis',(0.,0.,-1.));
#478=DIRECTION('ref_axis',(1.,0.,0.));
#479=DIRECTION('center_axis',(-1.,3.5527136788005E-16,0.));
#480=DIRECTION('ref_axis',(0.,-1.,0.));
#481=DIRECTION('',(3.5527136788005E-16,1.,0.));
#482=DIRECTION('',(3.5527136788005E-16,1.,0.));
#483=DIRECTION('center_axis',(0.,0.,1.));
#484=DIRECTION('ref_axis',(1.,0.,0.));
#485=DIRECTION('center_axis',(0.,0.,1.));
#486=DIRECTION('ref_axis',(1.,0.,0.));
#487=CARTESIAN_POINT('',(0.,0.,0.));
#488=CARTESIAN_POINT('Origin',(100.,-20.,0.));
#489=CARTESIAN_POINT('',(108.,-20.,1000.));
#490=CARTESIAN_POINT('',(100.,-12.,1000.));
#491=CARTESIAN_POINT('Origin',(100.,-20.,1000.));
#492=CARTESIAN_POINT('',(100.,-12.,0.));
#493=CARTESIAN_POINT('',(100.,-12.,0.));
#494=CARTESIAN_POINT('',(108.,-20.,0.));
#495=CARTESIAN_POINT('Origin',(100.,-20.,0.));
#496=CARTESIAN_POINT('',(108.,-20.,0.));
#497=CARTESIAN_POINT('Origin',(-100.,-12.0000000000001,0.));
#498=CARTESIAN_POINT('',(-100.,-12.0000000000001,1000.));
#499=CARTESIAN_POINT('',(-50.,-12.,1000.));
#500=CARTESIAN_POINT('',(-100.,-12.0000000000001,0.));
#501=CARTESIAN_POINT('',(-100.,-12.0000000000001,0.));
#502=CARTESIAN_POINT('',(-50.,-12.,0.));
#503=CARTESIAN_POINT('Origin',(-100.,-20.0000000000001,0.));
#504=CARTESIAN_POINT('',(-108.,-20.0000000000001,1000.));
#505=CARTESIAN_POINT('Origin',(-100.,-20.0000000000001,1000.));
#506=CARTESIAN_POINT('',(-108.,-20.0000000000001,0.));
#507=CARTESIAN_POINT('',(-108.,-20.0000000000001,0.));
#508=CARTESIAN_POINT('Origin',(-100.,-20.0000000000001,0.));
#509=CARTESIAN_POINT('Origin',(-108.,-70.,0.));
#510=CARTESIAN_POINT('',(-108.,-70.,1000.));
#511=CARTESIAN_POINT('',(-108.,-53.,1000.));
#512=CARTESIAN_POINT('',(-108.,-70.,0.));
#513=CARTESIAN_POINT('',(-108.,-70.,0.));
#514=CARTESIAN_POINT('',(-108.,-53.,0.));
#515=CARTESIAN_POINT('Origin',(-110.,-70.,0.));
#516=CARTESIAN_POINT('',(-110.,-72.,1000.));
#517=CARTESIAN_POINT('Origin',(-110.,-70.,1000.));
#518=CARTESIAN_POINT('',(-110.,-72.,0.));
#519=CARTESIAN_POINT('',(-110.,-72.,0.));
#520=CARTESIAN_POINT('Origin',(-110.,-70.,0.));
#521=CARTESIAN_POINT('Origin',(-118.,-72.,0.));
#522=CARTESIAN_POINT('',(-118.,-72.,1000.));
#523=CARTESIAN_POINT('',(-59.,-71.9999999999999,1000.));
#524=CARTESIAN_POINT('',(-118.,-72.,0.));
#525=CARTESIAN_POINT('',(-118.,-72.,0.));
#526=CARTESIAN_POINT('',(-59.,-71.9999999999999,0.));
#527=CARTESIAN_POINT('Origin',(-118.,-70.,0.));
#528=CARTESIAN_POINT('',(-120.,-70.,1000.));
#529=CARTESIAN_POINT('Origin',(-118.,-70.,1000.));
#530=CARTESIAN_POINT('',(-120.,-70.,0.));
#531=CARTESIAN_POINT('',(-120.,-70.,0.));
#532=CARTESIAN_POINT('Origin',(-118.,-70.,0.));
#533=CARTESIAN_POINT('Origin',(-120.,-4.,0.));
#534=CARTESIAN_POINT('',(-120.,-4.00000000000001,1000.));
#535=CARTESIAN_POINT('',(-120.,-20.,1000.));
#536=CARTESIAN_POINT('',(-120.,-4.00000000000001,0.));
#537=CARTESIAN_POINT('',(-120.,-4.00000000000001,0.));
#538=CARTESIAN_POINT('',(-120.,-20.,0.));
#539=CARTESIAN_POINT('Origin',(-116.,-4.00000000000001,0.));
#540=CARTESIAN_POINT('',(-116.,-7.07790316936371E-15,1000.));
#541=CARTESIAN_POINT('Origin',(-116.,-4.00000000000001,1000.));
#542=CARTESIAN_POINT('',(-116.,-7.07790316936371E-15,0.));
#543=CARTESIAN_POINT('',(-116.,-7.07790316936371E-15,0.));
#544=CARTESIAN_POINT('Origin',(-116.,-4.00000000000001,0.));
#545=CARTESIAN_POINT('Origin',(116.,3.5527136788005E-14,0.));
#546=CARTESIAN_POINT('',(116.,3.5527136788005E-14,1000.));
#547=CARTESIAN_POINT('',(58.,2.44249065417534E-14,1000.));
#548=CARTESIAN_POINT('',(116.,3.5527136788005E-14,0.));
#549=CARTESIAN_POINT('',(116.,3.5527136788005E-14,0.));
#550=CARTESIAN_POINT('',(58.,2.44249065417534E-14,0.));
#551=CARTESIAN_POINT('Origin',(116.,-3.99999999999999,0.));
#552=CARTESIAN_POINT('',(120.,-3.99999999999999,1000.));
#553=CARTESIAN_POINT('Origin',(116.,-3.99999999999999,1000.));
#554=CARTESIAN_POINT('',(120.,-3.99999999999999,0.));
#555=CARTESIAN_POINT('',(120.,-3.99999999999999,0.));
#556=CARTESIAN_POINT('Origin',(116.,-3.99999999999999,0.));
#557=CARTESIAN_POINT('Origin',(120.,-70.,0.));
#558=CARTESIAN_POINT('',(120.,-70.,1000.));
#559=CARTESIAN_POINT('',(120.,-53.,1000.));
#560=CARTESIAN_POINT('',(120.,-70.,0.));
#561=CARTESIAN_POINT('',(120.,-70.,0.));
#562=CARTESIAN_POINT('',(120.,-53.,0.));
#563=CARTESIAN_POINT('Origin',(118.,-70.,0.));
#564=CARTESIAN_POINT('',(118.,-72.,1000.));
#565=CARTESIAN_POINT('Origin',(118.,-70.,1000.));
#566=CARTESIAN_POINT('',(118.,-72.,0.));
#567=CARTESIAN_POINT('',(118.,-72.,0.));
#568=CARTESIAN_POINT('Origin',(118.,-70.,0.));
#569=CARTESIAN_POINT('Origin',(110.,-72.,0.));
#570=CARTESIAN_POINT('',(110.,-72.,1000.));
#571=CARTESIAN_POINT('',(55.0000000000001,-72.0000000000002,1000.));
#572=CARTESIAN_POINT('',(110.,-72.,0.));
#573=CARTESIAN_POINT('',(110.,-72.,0.));
#574=CARTESIAN_POINT('',(55.0000000000001,-72.0000000000002,0.));
#575=CARTESIAN_POINT('Origin',(110.,-70.,0.));
#576=CARTESIAN_POINT('',(108.,-70.,1000.));
#577=CARTESIAN_POINT('Origin',(110.,-70.,1000.));
#578=CARTESIAN_POINT('',(108.,-70.,0.));
#579=CARTESIAN_POINT('',(108.,-70.,0.));
#580=CARTESIAN_POINT('Origin',(110.,-70.,0.));
#581=CARTESIAN_POINT('Origin',(108.,-20.,0.));
#582=CARTESIAN_POINT('',(108.,-28.,1000.));
#583=CARTESIAN_POINT('',(108.,-28.,0.));
#584=CARTESIAN_POINT('Origin',(0.,-36.,0.));
#585=CARTESIAN_POINT('Origin',(0.,-36.,1000.));
#586=UNCERTAINTY_MEASURE_WITH_UNIT(LENGTH_MEASURE(0.01),#590,
'DISTANCE_ACCURACY_VALUE',
'Maximum model space distance between geometric entities at asserted c
onnectivities');
#587=UNCERTAINTY_MEASURE_WITH_UNIT(LENGTH_MEASURE(1.E-6),#590,
'DISTANCE_ACCURACY_VALUE',
'Maximum model space distance between geometric entities at asserted c
onnectivities');
#588=(
GEOMETRIC_REPRESENTATION_CONTEXT(3)
GLOBAL_UNCERTAINTY_ASSIGNED_CONTEXT((#586))
GLOBAL_UNIT_ASSIGNED_CONTEXT((#590,#593,#591))
REPRESENTATION_CONTEXT('','3D')
);
#589=(
GEOMETRIC_REPRESENTATION_CONTEXT(3)
GLOBAL_UNCERTAINTY_ASSIGNED_CONTEXT((#587))
GLOBAL_UNIT_ASSIGNED_CONTEXT((#590,#593,#591))
REPRESENTATION_CONTEXT('','3D')
);
#590=(
LENGTH_UNIT()
NAMED_UNIT(*)
SI_UNIT(.MILLI.,.METRE.)
);
#591=(
NAMED_UNIT(*)
SI_UNIT($,.STERADIAN.)
SOLID_ANGLE_UNIT()
);
#592=DIMENSIONAL_EXPONENTS(0.,0.,0.,0.,0.,0.,0.);
#593=(
CONVERSION_BASED_UNIT('degree',#595)
NAMED_UNIT(#592)
PLANE_ANGLE_UNIT()
);
#594=(
NAMED_UNIT(*)
PLANE_ANGLE_UNIT()
SI_UNIT($,.RADIAN.)
);
#595=PLANE_ANGLE_MEASURE_WITH_UNIT(PLANE_ANGLE_MEASURE(0.01745329252),#594);
#596=SHAPE_DEFINITION_REPRESENTATION(#597,#598);
#597=PRODUCT_DEFINITION_SHAPE('',$,#600);
#598=SHAPE_REPRESENTATION('',(#350),#588);
#599=PRODUCT_DEFINITION_CONTEXT('part definition',#604,'design');
#600=PRODUCT_DEFINITION('090243','090243-11',#601,#599);
#601=PRODUCT_DEFINITION_FORMATION('',$,#606);
#602=PRODUCT_RELATED_PRODUCT_CATEGORY('090243-11','090243-11',(#606));
#603=APPLICATION_PROTOCOL_DEFINITION('international standard',
'automotive_design',2009,#604);
#604=APPLICATION_CONTEXT(
'Core Data for Automotive Mechanical Design Process');
#605=PRODUCT_CONTEXT('part definition',#604,'mechanical');
#606=PRODUCT('090243','090243-11','U-profiler acc. to EN 13706',(#605));
#607=PRESENTATION_STYLE_ASSIGNMENT((#608));
#608=SURFACE_STYLE_USAGE(.BOTH.,#609);
#609=SURFACE_SIDE_STYLE('',(#610));
#610=SURFACE_STYLE_FILL_AREA(#611);
#611=FILL_AREA_STYLE('',(#612));
#612=FILL_AREA_STYLE_COLOUR('',#613);
#613=COLOUR_RGB('',1.,1.,1.);
ENDSEC;
END-ISO-10303-21;
