ISO-10303-21;
HEADER;
/* Generated by software containing ST-Developer
 * from STEP Tools, Inc. (www.steptools.com) 
 */

FILE_DESCRIPTION(
/* description */ ('firkant - rektangular'),
/* implementation_level */ '2;1');

FILE_NAME(
/* name */ 
'C:\\WF\\Designs\\Vare\\test Mirfit\\Profiles for e-com\\SHS\\SHS50x50
x5.stp',
/* time_stamp */ '2019-09-19T15:00:17+02:00',
/* author */ ('mma'),
/* organization */ (''),
/* preprocessor_version */ 'ST-DEVELOPER v16.5',
/* originating_system */ 'Autodesk Inventor 2017',
/* authorisation */ '0 mm^3');

FILE_SCHEMA (('AUTOMOTIVE_DESIGN { 1 0 10303 214 3 1 1 }'));
ENDSEC;

DATA;
#10=MECHANICAL_DESIGN_GEOMETRIC_PRESENTATION_REPRESENTATION('',(#13),#593);
#11=SHAPE_REPRESENTATION_RELATIONSHIP('SRR','None',#602,#12);
#12=ADVANCED_BREP_SHAPE_REPRESENTATION('',(#14),#592);
#13=STYLED_ITEM('',(#611),#14);
#14=MANIFOLD_SOLID_BREP('Solid1',#347);
#15=FACE_BOUND('',#62,.T.);
#16=FACE_BOUND('',#64,.T.);
#17=PLANE('',#358);
#18=PLANE('',#362);
#19=PLANE('',#366);
#20=PLANE('',#370);
#21=PLANE('',#374);
#22=PLANE('',#378);
#23=PLANE('',#382);
#24=PLANE('',#386);
#25=PLANE('',#387);
#26=PLANE('',#388);
#27=FACE_OUTER_BOUND('',#45,.T.);
#28=FACE_OUTER_BOUND('',#46,.T.);
#29=FACE_OUTER_BOUND('',#47,.T.);
#30=FACE_OUTER_BOUND('',#48,.T.);
#31=FACE_OUTER_BOUND('',#49,.T.);
#32=FACE_OUTER_BOUND('',#50,.T.);
#33=FACE_OUTER_BOUND('',#51,.T.);
#34=FACE_OUTER_BOUND('',#52,.T.);
#35=FACE_OUTER_BOUND('',#53,.T.);
#36=FACE_OUTER_BOUND('',#54,.T.);
#37=FACE_OUTER_BOUND('',#55,.T.);
#38=FACE_OUTER_BOUND('',#56,.T.);
#39=FACE_OUTER_BOUND('',#57,.T.);
#40=FACE_OUTER_BOUND('',#58,.T.);
#41=FACE_OUTER_BOUND('',#59,.T.);
#42=FACE_OUTER_BOUND('',#60,.T.);
#43=FACE_OUTER_BOUND('',#61,.T.);
#44=FACE_OUTER_BOUND('',#63,.T.);
#45=EDGE_LOOP('',(#225,#226,#227,#228));
#46=EDGE_LOOP('',(#229,#230,#231,#232));
#47=EDGE_LOOP('',(#233,#234,#235,#236));
#48=EDGE_LOOP('',(#237,#238,#239,#240));
#49=EDGE_LOOP('',(#241,#242,#243,#244));
#50=EDGE_LOOP('',(#245,#246,#247,#248));
#51=EDGE_LOOP('',(#249,#250,#251,#252));
#52=EDGE_LOOP('',(#253,#254,#255,#256));
#53=EDGE_LOOP('',(#257,#258,#259,#260));
#54=EDGE_LOOP('',(#261,#262,#263,#264));
#55=EDGE_LOOP('',(#265,#266,#267,#268));
#56=EDGE_LOOP('',(#269,#270,#271,#272));
#57=EDGE_LOOP('',(#273,#274,#275,#276));
#58=EDGE_LOOP('',(#277,#278,#279,#280));
#59=EDGE_LOOP('',(#281,#282,#283,#284));
#60=EDGE_LOOP('',(#285,#286,#287,#288));
#61=EDGE_LOOP('',(#289,#290,#291,#292,#293,#294,#295,#296));
#62=EDGE_LOOP('',(#297,#298,#299,#300,#301,#302,#303,#304));
#63=EDGE_LOOP('',(#305,#306,#307,#308,#309,#310,#311,#312));
#64=EDGE_LOOP('',(#313,#314,#315,#316,#317,#318,#319,#320));
#65=LINE('',#497,#97);
#66=LINE('',#500,#98);
#67=LINE('',#503,#99);
#68=LINE('',#505,#100);
#69=LINE('',#506,#101);
#70=LINE('',#511,#102);
#71=LINE('',#515,#103);
#72=LINE('',#517,#104);
#73=LINE('',#518,#105);
#74=LINE('',#524,#106);
#75=LINE('',#527,#107);
#76=LINE('',#530,#108);
#77=LINE('',#532,#109);
#78=LINE('',#533,#110);
#79=LINE('',#538,#111);
#80=LINE('',#542,#112);
#81=LINE('',#544,#113);
#82=LINE('',#545,#114);
#83=LINE('',#550,#115);
#84=LINE('',#554,#116);
#85=LINE('',#556,#117);
#86=LINE('',#557,#118);
#87=LINE('',#563,#119);
#88=LINE('',#565,#120);
#89=LINE('',#566,#121);
#90=LINE('',#571,#122);
#91=LINE('',#575,#123);
#92=LINE('',#577,#124);
#93=LINE('',#578,#125);
#94=LINE('',#583,#126);
#95=LINE('',#586,#127);
#96=LINE('',#587,#128);
#97=VECTOR('',#395,10.);
#98=VECTOR('',#398,10.);
#99=VECTOR('',#401,10.);
#100=VECTOR('',#402,10.);
#101=VECTOR('',#403,10.);
#102=VECTOR('',#408,10.);
#103=VECTOR('',#413,10.);
#104=VECTOR('',#414,10.);
#105=VECTOR('',#415,10.);
#106=VECTOR('',#420,10.);
#107=VECTOR('',#423,10.);
#108=VECTOR('',#426,10.);
#109=VECTOR('',#427,10.);
#110=VECTOR('',#428,10.);
#111=VECTOR('',#433,10.);
#112=VECTOR('',#438,10.);
#113=VECTOR('',#439,10.);
#114=VECTOR('',#440,10.);
#115=VECTOR('',#445,10.);
#116=VECTOR('',#450,10.);
#117=VECTOR('',#451,10.);
#118=VECTOR('',#452,10.);
#119=VECTOR('',#459,10.);
#120=VECTOR('',#462,10.);
#121=VECTOR('',#463,10.);
#122=VECTOR('',#468,10.);
#123=VECTOR('',#473,10.);
#124=VECTOR('',#474,10.);
#125=VECTOR('',#475,10.);
#126=VECTOR('',#480,10.);
#127=VECTOR('',#485,10.);
#128=VECTOR('',#486,10.);
#129=CIRCLE('',#356,1.);
#130=CIRCLE('',#357,1.);
#131=CIRCLE('',#360,1.);
#132=CIRCLE('',#361,1.);
#133=CIRCLE('',#364,1.5);
#134=CIRCLE('',#365,1.5);
#135=CIRCLE('',#368,1.5);
#136=CIRCLE('',#369,1.5);
#137=CIRCLE('',#372,1.);
#138=CIRCLE('',#373,1.);
#139=CIRCLE('',#376,1.);
#140=CIRCLE('',#377,1.);
#141=CIRCLE('',#380,1.5);
#142=CIRCLE('',#381,1.5);
#143=CIRCLE('',#384,1.5);
#144=CIRCLE('',#385,1.5);
#145=VERTEX_POINT('',#493);
#146=VERTEX_POINT('',#494);
#147=VERTEX_POINT('',#496);
#148=VERTEX_POINT('',#498);
#149=VERTEX_POINT('',#502);
#150=VERTEX_POINT('',#504);
#151=VERTEX_POINT('',#508);
#152=VERTEX_POINT('',#510);
#153=VERTEX_POINT('',#514);
#154=VERTEX_POINT('',#516);
#155=VERTEX_POINT('',#520);
#156=VERTEX_POINT('',#521);
#157=VERTEX_POINT('',#523);
#158=VERTEX_POINT('',#525);
#159=VERTEX_POINT('',#529);
#160=VERTEX_POINT('',#531);
#161=VERTEX_POINT('',#535);
#162=VERTEX_POINT('',#537);
#163=VERTEX_POINT('',#541);
#164=VERTEX_POINT('',#543);
#165=VERTEX_POINT('',#547);
#166=VERTEX_POINT('',#549);
#167=VERTEX_POINT('',#553);
#168=VERTEX_POINT('',#555);
#169=VERTEX_POINT('',#559);
#170=VERTEX_POINT('',#561);
#171=VERTEX_POINT('',#568);
#172=VERTEX_POINT('',#570);
#173=VERTEX_POINT('',#574);
#174=VERTEX_POINT('',#576);
#175=VERTEX_POINT('',#580);
#176=VERTEX_POINT('',#582);
#177=EDGE_CURVE('',#145,#146,#129,.T.);
#178=EDGE_CURVE('',#146,#147,#65,.T.);
#179=EDGE_CURVE('',#148,#147,#130,.T.);
#180=EDGE_CURVE('',#145,#148,#66,.T.);
#181=EDGE_CURVE('',#146,#149,#67,.T.);
#182=EDGE_CURVE('',#149,#150,#68,.T.);
#183=EDGE_CURVE('',#147,#150,#69,.T.);
#184=EDGE_CURVE('',#149,#151,#131,.T.);
#185=EDGE_CURVE('',#151,#152,#70,.T.);
#186=EDGE_CURVE('',#150,#152,#132,.T.);
#187=EDGE_CURVE('',#151,#153,#71,.T.);
#188=EDGE_CURVE('',#153,#154,#72,.T.);
#189=EDGE_CURVE('',#152,#154,#73,.T.);
#190=EDGE_CURVE('',#155,#156,#133,.T.);
#191=EDGE_CURVE('',#156,#157,#74,.T.);
#192=EDGE_CURVE('',#158,#157,#134,.T.);
#193=EDGE_CURVE('',#155,#158,#75,.T.);
#194=EDGE_CURVE('',#156,#159,#76,.T.);
#195=EDGE_CURVE('',#159,#160,#77,.T.);
#196=EDGE_CURVE('',#157,#160,#78,.T.);
#197=EDGE_CURVE('',#159,#161,#135,.T.);
#198=EDGE_CURVE('',#162,#161,#79,.T.);
#199=EDGE_CURVE('',#160,#162,#136,.T.);
#200=EDGE_CURVE('',#161,#163,#80,.T.);
#201=EDGE_CURVE('',#163,#164,#81,.T.);
#202=EDGE_CURVE('',#162,#164,#82,.T.);
#203=EDGE_CURVE('',#153,#165,#137,.T.);
#204=EDGE_CURVE('',#165,#166,#83,.T.);
#205=EDGE_CURVE('',#154,#166,#138,.T.);
#206=EDGE_CURVE('',#167,#145,#84,.T.);
#207=EDGE_CURVE('',#168,#148,#85,.T.);
#208=EDGE_CURVE('',#167,#168,#86,.T.);
#209=EDGE_CURVE('',#169,#167,#139,.T.);
#210=EDGE_CURVE('',#170,#168,#140,.T.);
#211=EDGE_CURVE('',#170,#169,#87,.T.);
#212=EDGE_CURVE('',#165,#169,#88,.T.);
#213=EDGE_CURVE('',#166,#170,#89,.T.);
#214=EDGE_CURVE('',#163,#171,#141,.T.);
#215=EDGE_CURVE('',#171,#172,#90,.T.);
#216=EDGE_CURVE('',#164,#172,#142,.T.);
#217=EDGE_CURVE('',#171,#173,#91,.T.);
#218=EDGE_CURVE('',#173,#174,#92,.T.);
#219=EDGE_CURVE('',#172,#174,#93,.T.);
#220=EDGE_CURVE('',#173,#175,#143,.T.);
#221=EDGE_CURVE('',#175,#176,#94,.T.);
#222=EDGE_CURVE('',#174,#176,#144,.T.);
#223=EDGE_CURVE('',#175,#155,#95,.T.);
#224=EDGE_CURVE('',#176,#158,#96,.T.);
#225=ORIENTED_EDGE('',*,*,#177,.T.);
#226=ORIENTED_EDGE('',*,*,#178,.T.);
#227=ORIENTED_EDGE('',*,*,#179,.F.);
#228=ORIENTED_EDGE('',*,*,#180,.F.);
#229=ORIENTED_EDGE('',*,*,#181,.T.);
#230=ORIENTED_EDGE('',*,*,#182,.T.);
#231=ORIENTED_EDGE('',*,*,#183,.F.);
#232=ORIENTED_EDGE('',*,*,#178,.F.);
#233=ORIENTED_EDGE('',*,*,#184,.T.);
#234=ORIENTED_EDGE('',*,*,#185,.T.);
#235=ORIENTED_EDGE('',*,*,#186,.F.);
#236=ORIENTED_EDGE('',*,*,#182,.F.);
#237=ORIENTED_EDGE('',*,*,#187,.T.);
#238=ORIENTED_EDGE('',*,*,#188,.T.);
#239=ORIENTED_EDGE('',*,*,#189,.F.);
#240=ORIENTED_EDGE('',*,*,#185,.F.);
#241=ORIENTED_EDGE('',*,*,#190,.T.);
#242=ORIENTED_EDGE('',*,*,#191,.T.);
#243=ORIENTED_EDGE('',*,*,#192,.F.);
#244=ORIENTED_EDGE('',*,*,#193,.F.);
#245=ORIENTED_EDGE('',*,*,#194,.T.);
#246=ORIENTED_EDGE('',*,*,#195,.T.);
#247=ORIENTED_EDGE('',*,*,#196,.F.);
#248=ORIENTED_EDGE('',*,*,#191,.F.);
#249=ORIENTED_EDGE('',*,*,#197,.T.);
#250=ORIENTED_EDGE('',*,*,#198,.F.);
#251=ORIENTED_EDGE('',*,*,#199,.F.);
#252=ORIENTED_EDGE('',*,*,#195,.F.);
#253=ORIENTED_EDGE('',*,*,#200,.T.);
#254=ORIENTED_EDGE('',*,*,#201,.T.);
#255=ORIENTED_EDGE('',*,*,#202,.F.);
#256=ORIENTED_EDGE('',*,*,#198,.T.);
#257=ORIENTED_EDGE('',*,*,#203,.T.);
#258=ORIENTED_EDGE('',*,*,#204,.T.);
#259=ORIENTED_EDGE('',*,*,#205,.F.);
#260=ORIENTED_EDGE('',*,*,#188,.F.);
#261=ORIENTED_EDGE('',*,*,#206,.T.);
#262=ORIENTED_EDGE('',*,*,#180,.T.);
#263=ORIENTED_EDGE('',*,*,#207,.F.);
#264=ORIENTED_EDGE('',*,*,#208,.F.);
#265=ORIENTED_EDGE('',*,*,#209,.T.);
#266=ORIENTED_EDGE('',*,*,#208,.T.);
#267=ORIENTED_EDGE('',*,*,#210,.F.);
#268=ORIENTED_EDGE('',*,*,#211,.T.);
#269=ORIENTED_EDGE('',*,*,#212,.T.);
#270=ORIENTED_EDGE('',*,*,#211,.F.);
#271=ORIENTED_EDGE('',*,*,#213,.F.);
#272=ORIENTED_EDGE('',*,*,#204,.F.);
#273=ORIENTED_EDGE('',*,*,#214,.T.);
#274=ORIENTED_EDGE('',*,*,#215,.T.);
#275=ORIENTED_EDGE('',*,*,#216,.F.);
#276=ORIENTED_EDGE('',*,*,#201,.F.);
#277=ORIENTED_EDGE('',*,*,#217,.T.);
#278=ORIENTED_EDGE('',*,*,#218,.T.);
#279=ORIENTED_EDGE('',*,*,#219,.F.);
#280=ORIENTED_EDGE('',*,*,#215,.F.);
#281=ORIENTED_EDGE('',*,*,#220,.T.);
#282=ORIENTED_EDGE('',*,*,#221,.T.);
#283=ORIENTED_EDGE('',*,*,#222,.F.);
#284=ORIENTED_EDGE('',*,*,#218,.F.);
#285=ORIENTED_EDGE('',*,*,#223,.T.);
#286=ORIENTED_EDGE('',*,*,#193,.T.);
#287=ORIENTED_EDGE('',*,*,#224,.F.);
#288=ORIENTED_EDGE('',*,*,#221,.F.);
#289=ORIENTED_EDGE('',*,*,#216,.T.);
#290=ORIENTED_EDGE('',*,*,#219,.T.);
#291=ORIENTED_EDGE('',*,*,#222,.T.);
#292=ORIENTED_EDGE('',*,*,#224,.T.);
#293=ORIENTED_EDGE('',*,*,#192,.T.);
#294=ORIENTED_EDGE('',*,*,#196,.T.);
#295=ORIENTED_EDGE('',*,*,#199,.T.);
#296=ORIENTED_EDGE('',*,*,#202,.T.);
#297=ORIENTED_EDGE('',*,*,#205,.T.);
#298=ORIENTED_EDGE('',*,*,#213,.T.);
#299=ORIENTED_EDGE('',*,*,#210,.T.);
#300=ORIENTED_EDGE('',*,*,#207,.T.);
#301=ORIENTED_EDGE('',*,*,#179,.T.);
#302=ORIENTED_EDGE('',*,*,#183,.T.);
#303=ORIENTED_EDGE('',*,*,#186,.T.);
#304=ORIENTED_EDGE('',*,*,#189,.T.);
#305=ORIENTED_EDGE('',*,*,#214,.F.);
#306=ORIENTED_EDGE('',*,*,#200,.F.);
#307=ORIENTED_EDGE('',*,*,#197,.F.);
#308=ORIENTED_EDGE('',*,*,#194,.F.);
#309=ORIENTED_EDGE('',*,*,#190,.F.);
#310=ORIENTED_EDGE('',*,*,#223,.F.);
#311=ORIENTED_EDGE('',*,*,#220,.F.);
#312=ORIENTED_EDGE('',*,*,#217,.F.);
#313=ORIENTED_EDGE('',*,*,#203,.F.);
#314=ORIENTED_EDGE('',*,*,#187,.F.);
#315=ORIENTED_EDGE('',*,*,#184,.F.);
#316=ORIENTED_EDGE('',*,*,#181,.F.);
#317=ORIENTED_EDGE('',*,*,#177,.F.);
#318=ORIENTED_EDGE('',*,*,#206,.F.);
#319=ORIENTED_EDGE('',*,*,#209,.F.);
#320=ORIENTED_EDGE('',*,*,#212,.F.);
#321=CYLINDRICAL_SURFACE('',#355,1.);
#322=CYLINDRICAL_SURFACE('',#359,1.);
#323=CYLINDRICAL_SURFACE('',#363,1.5);
#324=CYLINDRICAL_SURFACE('',#367,1.5);
#325=CYLINDRICAL_SURFACE('',#371,1.);
#326=CYLINDRICAL_SURFACE('',#375,1.);
#327=CYLINDRICAL_SURFACE('',#379,1.5);
#328=CYLINDRICAL_SURFACE('',#383,1.5);
#329=ADVANCED_FACE('',(#27),#321,.F.);
#330=ADVANCED_FACE('',(#28),#17,.F.);
#331=ADVANCED_FACE('',(#29),#322,.F.);
#332=ADVANCED_FACE('',(#30),#18,.F.);
#333=ADVANCED_FACE('',(#31),#323,.T.);
#334=ADVANCED_FACE('',(#32),#19,.T.);
#335=ADVANCED_FACE('',(#33),#324,.T.);
#336=ADVANCED_FACE('',(#34),#20,.T.);
#337=ADVANCED_FACE('',(#35),#325,.F.);
#338=ADVANCED_FACE('',(#36),#21,.F.);
#339=ADVANCED_FACE('',(#37),#326,.F.);
#340=ADVANCED_FACE('',(#38),#22,.F.);
#341=ADVANCED_FACE('',(#39),#327,.T.);
#342=ADVANCED_FACE('',(#40),#23,.T.);
#343=ADVANCED_FACE('',(#41),#328,.T.);
#344=ADVANCED_FACE('',(#42),#24,.T.);
#345=ADVANCED_FACE('',(#43,#15),#25,.F.);
#346=ADVANCED_FACE('',(#44,#16),#26,.T.);
#347=CLOSED_SHELL('',(#329,#330,#331,#332,#333,#334,#335,#336,#337,#338,
#339,#340,#341,#342,#343,#344,#345,#346));
#348=DATE_TIME_ROLE('creation_date');
#349=APPLIED_DATE_AND_TIME_ASSIGNMENT(#350,#348,(#604));
#350=DATE_AND_TIME(#351,#352);
#351=CALENDAR_DATE(2018,15,11);
#352=LOCAL_TIME(11,7,13.,#353);
#353=COORDINATED_UNIVERSAL_TIME_OFFSET(0,0,.BEHIND.);
#354=AXIS2_PLACEMENT_3D('placement',#491,#389,#390);
#355=AXIS2_PLACEMENT_3D('',#492,#391,#392);
#356=AXIS2_PLACEMENT_3D('',#495,#393,#394);
#357=AXIS2_PLACEMENT_3D('',#499,#396,#397);
#358=AXIS2_PLACEMENT_3D('',#501,#399,#400);
#359=AXIS2_PLACEMENT_3D('',#507,#404,#405);
#360=AXIS2_PLACEMENT_3D('',#509,#406,#407);
#361=AXIS2_PLACEMENT_3D('',#512,#409,#410);
#362=AXIS2_PLACEMENT_3D('',#513,#411,#412);
#363=AXIS2_PLACEMENT_3D('',#519,#416,#417);
#364=AXIS2_PLACEMENT_3D('',#522,#418,#419);
#365=AXIS2_PLACEMENT_3D('',#526,#421,#422);
#366=AXIS2_PLACEMENT_3D('',#528,#424,#425);
#367=AXIS2_PLACEMENT_3D('',#534,#429,#430);
#368=AXIS2_PLACEMENT_3D('',#536,#431,#432);
#369=AXIS2_PLACEMENT_3D('',#539,#434,#435);
#370=AXIS2_PLACEMENT_3D('',#540,#436,#437);
#371=AXIS2_PLACEMENT_3D('',#546,#441,#442);
#372=AXIS2_PLACEMENT_3D('',#548,#443,#444);
#373=AXIS2_PLACEMENT_3D('',#551,#446,#447);
#374=AXIS2_PLACEMENT_3D('',#552,#448,#449);
#375=AXIS2_PLACEMENT_3D('',#558,#453,#454);
#376=AXIS2_PLACEMENT_3D('',#560,#455,#456);
#377=AXIS2_PLACEMENT_3D('',#562,#457,#458);
#378=AXIS2_PLACEMENT_3D('',#564,#460,#461);
#379=AXIS2_PLACEMENT_3D('',#567,#464,#465);
#380=AXIS2_PLACEMENT_3D('',#569,#466,#467);
#381=AXIS2_PLACEMENT_3D('',#572,#469,#470);
#382=AXIS2_PLACEMENT_3D('',#573,#471,#472);
#383=AXIS2_PLACEMENT_3D('',#579,#476,#477);
#384=AXIS2_PLACEMENT_3D('',#581,#478,#479);
#385=AXIS2_PLACEMENT_3D('',#584,#481,#482);
#386=AXIS2_PLACEMENT_3D('',#585,#483,#484);
#387=AXIS2_PLACEMENT_3D('',#588,#487,#488);
#388=AXIS2_PLACEMENT_3D('',#589,#489,#490);
#389=DIRECTION('axis',(0.,0.,1.));
#390=DIRECTION('refdir',(1.,0.,0.));
#391=DIRECTION('center_axis',(0.,0.,1.));
#392=DIRECTION('ref_axis',(1.,0.,0.));
#393=DIRECTION('center_axis',(0.,0.,1.));
#394=DIRECTION('ref_axis',(1.,0.,0.));
#395=DIRECTION('',(0.,0.,-1.));
#396=DIRECTION('center_axis',(0.,0.,1.));
#397=DIRECTION('ref_axis',(1.,0.,0.));
#398=DIRECTION('',(0.,0.,-1.));
#399=DIRECTION('center_axis',(0.,-1.,0.));
#400=DIRECTION('ref_axis',(1.,0.,0.));
#401=DIRECTION('',(1.,0.,0.));
#402=DIRECTION('',(0.,0.,-1.));
#403=DIRECTION('',(1.,0.,0.));
#404=DIRECTION('center_axis',(0.,0.,1.));
#405=DIRECTION('ref_axis',(0.,1.,0.));
#406=DIRECTION('center_axis',(0.,0.,1.));
#407=DIRECTION('ref_axis',(0.,1.,0.));
#408=DIRECTION('',(0.,0.,-1.));
#409=DIRECTION('center_axis',(0.,0.,1.));
#410=DIRECTION('ref_axis',(0.,1.,0.));
#411=DIRECTION('center_axis',(1.,0.,0.));
#412=DIRECTION('ref_axis',(0.,1.,0.));
#413=DIRECTION('',(0.,1.,0.));
#414=DIRECTION('',(0.,0.,-1.));
#415=DIRECTION('',(0.,1.,0.));
#416=DIRECTION('center_axis',(0.,0.,1.));
#417=DIRECTION('ref_axis',(1.,0.,0.));
#418=DIRECTION('center_axis',(0.,0.,-1.));
#419=DIRECTION('ref_axis',(1.,0.,0.));
#420=DIRECTION('',(0.,0.,-1.));
#421=DIRECTION('center_axis',(0.,0.,-1.));
#422=DIRECTION('ref_axis',(1.,0.,0.));
#423=DIRECTION('',(0.,0.,-1.));
#424=DIRECTION('center_axis',(-1.,1.13384479110654E-15,0.));
#425=DIRECTION('ref_axis',(-1.06581410364015E-15,-1.,0.));
#426=DIRECTION('',(1.13384479110654E-15,1.,0.));
#427=DIRECTION('',(0.,0.,-1.));
#428=DIRECTION('',(1.13384479110654E-15,1.,0.));
#429=DIRECTION('center_axis',(0.,0.,1.));
#430=DIRECTION('ref_axis',(0.,-1.,0.));
#431=DIRECTION('center_axis',(0.,0.,-1.));
#432=DIRECTION('ref_axis',(0.,-1.,0.));
#433=DIRECTION('',(0.,0.,1.));
#434=DIRECTION('center_axis',(0.,0.,-1.));
#435=DIRECTION('ref_axis',(0.,-1.,0.));
#436=DIRECTION('center_axis',(-7.55896527404361E-16,1.,0.));
#437=DIRECTION('ref_axis',(-1.,-7.105427357601E-16,0.));
#438=DIRECTION('',(1.,7.55896527404361E-16,0.));
#439=DIRECTION('',(0.,0.,-1.));
#440=DIRECTION('',(1.,7.55896527404361E-16,0.));
#441=DIRECTION('center_axis',(0.,0.,1.));
#442=DIRECTION('ref_axis',(-1.,-8.88178419700097E-15,0.));
#443=DIRECTION('center_axis',(0.,0.,1.));
#444=DIRECTION('ref_axis',(-1.,-8.88178419700097E-15,0.));
#445=DIRECTION('',(0.,0.,-1.));
#446=DIRECTION('center_axis',(0.,0.,1.));
#447=DIRECTION('ref_axis',(-1.,-8.88178419700097E-15,0.));
#448=DIRECTION('center_axis',(-1.,-4.67462326157961E-16,0.));
#449=DIRECTION('ref_axis',(3.5527136788005E-16,-1.,0.));
#450=DIRECTION('',(4.67462326157961E-16,-1.,0.));
#451=DIRECTION('',(4.67462326157961E-16,-1.,0.));
#452=DIRECTION('',(0.,0.,-1.));
#453=DIRECTION('center_axis',(0.,0.,1.));
#454=DIRECTION('ref_axis',(0.,-1.,0.));
#455=DIRECTION('center_axis',(0.,0.,1.));
#456=DIRECTION('ref_axis',(0.,-1.,0.));
#457=DIRECTION('center_axis',(0.,0.,1.));
#458=DIRECTION('ref_axis',(0.,-1.,0.));
#459=DIRECTION('',(0.,0.,1.));
#460=DIRECTION('center_axis',(0.,1.,0.));
#461=DIRECTION('ref_axis',(-1.,0.,0.));
#462=DIRECTION('',(-1.,0.,0.));
#463=DIRECTION('',(-1.,0.,0.));
#464=DIRECTION('center_axis',(0.,0.,1.));
#465=DIRECTION('ref_axis',(-1.,0.,0.));
#466=DIRECTION('center_axis',(0.,0.,-1.));
#467=DIRECTION('ref_axis',(-1.,0.,0.));
#468=DIRECTION('',(0.,0.,-1.));
#469=DIRECTION('center_axis',(0.,0.,-1.));
#470=DIRECTION('ref_axis',(-1.,0.,0.));
#471=DIRECTION('center_axis',(1.,-7.55896527404361E-16,0.));
#472=DIRECTION('ref_axis',(7.105427357601E-16,1.,0.));
#473=DIRECTION('',(-7.55896527404361E-16,-1.,0.));
#474=DIRECTION('',(0.,0.,-1.));
#475=DIRECTION('',(-7.55896527404361E-16,-1.,0.));
#476=DIRECTION('center_axis',(0.,0.,1.));
#477=DIRECTION('ref_axis',(0.,1.,0.));
#478=DIRECTION('center_axis',(0.,0.,-1.));
#479=DIRECTION('ref_axis',(0.,1.,0.));
#480=DIRECTION('',(0.,0.,-1.));
#481=DIRECTION('center_axis',(0.,0.,-1.));
#482=DIRECTION('ref_axis',(0.,1.,0.));
#483=DIRECTION('center_axis',(-3.77948263702181E-16,-1.,0.));
#484=DIRECTION('ref_axis',(1.,-3.5527136788005E-16,0.));
#485=DIRECTION('',(-1.,3.77948263702181E-16,0.));
#486=DIRECTION('',(-1.,3.77948263702181E-16,0.));
#487=DIRECTION('center_axis',(0.,0.,1.));
#488=DIRECTION('ref_axis',(1.,0.,0.));
#489=DIRECTION('center_axis',(0.,0.,1.));
#490=DIRECTION('ref_axis',(1.,0.,0.));
#491=CARTESIAN_POINT('',(0.,0.,0.));
#492=CARTESIAN_POINT('Origin',(-19.,-19.,0.));
#493=CARTESIAN_POINT('',(-20.,-19.,1000.));
#494=CARTESIAN_POINT('',(-19.,-20.,1000.));
#495=CARTESIAN_POINT('Origin',(-19.,-19.,1000.));
#496=CARTESIAN_POINT('',(-19.,-20.,0.));
#497=CARTESIAN_POINT('',(-19.,-20.,0.));
#498=CARTESIAN_POINT('',(-20.,-19.,0.));
#499=CARTESIAN_POINT('Origin',(-19.,-19.,0.));
#500=CARTESIAN_POINT('',(-20.,-19.,0.));
#501=CARTESIAN_POINT('Origin',(-19.,-20.,0.));
#502=CARTESIAN_POINT('',(19.,-20.,1000.));
#503=CARTESIAN_POINT('',(-9.50000000000001,-20.,1000.));
#504=CARTESIAN_POINT('',(19.,-20.,0.));
#505=CARTESIAN_POINT('',(19.,-20.,0.));
#506=CARTESIAN_POINT('',(-9.50000000000001,-20.,0.));
#507=CARTESIAN_POINT('Origin',(19.,-19.,0.));
#508=CARTESIAN_POINT('',(20.,-19.,1000.));
#509=CARTESIAN_POINT('Origin',(19.,-19.,1000.));
#510=CARTESIAN_POINT('',(20.,-19.,0.));
#511=CARTESIAN_POINT('',(20.,-19.,0.));
#512=CARTESIAN_POINT('Origin',(19.,-19.,0.));
#513=CARTESIAN_POINT('Origin',(20.,-19.,0.));
#514=CARTESIAN_POINT('',(20.,19.,1000.));
#515=CARTESIAN_POINT('',(20.,-9.50000000000001,1000.));
#516=CARTESIAN_POINT('',(20.,19.,0.));
#517=CARTESIAN_POINT('',(20.,19.,0.));
#518=CARTESIAN_POINT('',(20.,-9.50000000000001,0.));
#519=CARTESIAN_POINT('Origin',(-23.5,-23.5,0.));
#520=CARTESIAN_POINT('',(-23.5,-25.,1000.));
#521=CARTESIAN_POINT('',(-25.0000000000001,-23.5,1000.));
#522=CARTESIAN_POINT('Origin',(-23.5,-23.5,1000.));
#523=CARTESIAN_POINT('',(-25.0000000000001,-23.5,0.));
#524=CARTESIAN_POINT('',(-25.0000000000001,-23.5,0.));
#525=CARTESIAN_POINT('',(-23.5,-25.,0.));
#526=CARTESIAN_POINT('Origin',(-23.5,-23.5,0.));
#527=CARTESIAN_POINT('',(-23.5,-25.,0.));
#528=CARTESIAN_POINT('Origin',(-25.,23.5,0.));
#529=CARTESIAN_POINT('',(-25.,23.5,1000.));
#530=CARTESIAN_POINT('',(-25.,11.75,1000.));
#531=CARTESIAN_POINT('',(-25.,23.5,0.));
#532=CARTESIAN_POINT('',(-25.,23.5,0.));
#533=CARTESIAN_POINT('',(-25.,11.75,0.));
#534=CARTESIAN_POINT('Origin',(-23.5,23.5,0.));
#535=CARTESIAN_POINT('',(-23.5,25.,1000.));
#536=CARTESIAN_POINT('Origin',(-23.5,23.5,1000.));
#537=CARTESIAN_POINT('',(-23.5,25.,0.));
#538=CARTESIAN_POINT('',(-23.5,25.,0.));
#539=CARTESIAN_POINT('Origin',(-23.5,23.5,0.));
#540=CARTESIAN_POINT('Origin',(23.5,25.,0.));
#541=CARTESIAN_POINT('',(23.5,25.,1000.));
#542=CARTESIAN_POINT('',(11.75,25.,1000.));
#543=CARTESIAN_POINT('',(23.5,25.,0.));
#544=CARTESIAN_POINT('',(23.5,25.,0.));
#545=CARTESIAN_POINT('',(11.75,25.,0.));
#546=CARTESIAN_POINT('Origin',(19.,19.,0.));
#547=CARTESIAN_POINT('',(19.,20.,1000.));
#548=CARTESIAN_POINT('Origin',(19.,19.,1000.));
#549=CARTESIAN_POINT('',(19.,20.,0.));
#550=CARTESIAN_POINT('',(19.,20.,0.));
#551=CARTESIAN_POINT('Origin',(19.,19.,0.));
#552=CARTESIAN_POINT('Origin',(-20.,19.,0.));
#553=CARTESIAN_POINT('',(-20.,19.,1000.));
#554=CARTESIAN_POINT('',(-20.,9.49999999999998,1000.));
#555=CARTESIAN_POINT('',(-20.,19.,0.));
#556=CARTESIAN_POINT('',(-20.,9.49999999999998,0.));
#557=CARTESIAN_POINT('',(-20.,19.,0.));
#558=CARTESIAN_POINT('Origin',(-19.,19.,0.));
#559=CARTESIAN_POINT('',(-19.,20.,1000.));
#560=CARTESIAN_POINT('Origin',(-19.,19.,1000.));
#561=CARTESIAN_POINT('',(-19.,20.,0.));
#562=CARTESIAN_POINT('Origin',(-19.,19.,0.));
#563=CARTESIAN_POINT('',(-19.,20.,0.));
#564=CARTESIAN_POINT('Origin',(19.,20.,0.));
#565=CARTESIAN_POINT('',(9.49999999999997,20.,1000.));
#566=CARTESIAN_POINT('',(9.49999999999997,20.,0.));
#567=CARTESIAN_POINT('Origin',(23.5,23.5,0.));
#568=CARTESIAN_POINT('',(25.,23.5,1000.));
#569=CARTESIAN_POINT('Origin',(23.5,23.5,1000.));
#570=CARTESIAN_POINT('',(25.,23.5,0.));
#571=CARTESIAN_POINT('',(25.,23.5,0.));
#572=CARTESIAN_POINT('Origin',(23.5,23.5,0.));
#573=CARTESIAN_POINT('Origin',(25.,-23.5,0.));
#574=CARTESIAN_POINT('',(25.,-23.5,1000.));
#575=CARTESIAN_POINT('',(25.,-11.75,1000.));
#576=CARTESIAN_POINT('',(25.,-23.5,0.));
#577=CARTESIAN_POINT('',(25.,-23.5,0.));
#578=CARTESIAN_POINT('',(25.,-11.75,0.));
#579=CARTESIAN_POINT('Origin',(23.5,-23.5,0.));
#580=CARTESIAN_POINT('',(23.5,-25.,1000.));
#581=CARTESIAN_POINT('Origin',(23.5,-23.5,1000.));
#582=CARTESIAN_POINT('',(23.5,-25.,0.));
#583=CARTESIAN_POINT('',(23.5,-25.,0.));
#584=CARTESIAN_POINT('Origin',(23.5,-23.5,0.));
#585=CARTESIAN_POINT('Origin',(-23.5,-25.,0.));
#586=CARTESIAN_POINT('',(-11.75,-25.,1000.));
#587=CARTESIAN_POINT('',(-11.75,-25.,0.));
#588=CARTESIAN_POINT('Origin',(-2.66453525910038E-14,-6.66133814775094E-15,
0.));
#589=CARTESIAN_POINT('Origin',(-2.66453525910038E-14,-6.66133814775094E-15,
1000.));
#590=UNCERTAINTY_MEASURE_WITH_UNIT(LENGTH_MEASURE(0.01),#594,
'DISTANCE_ACCURACY_VALUE',
'Maximum model space distance between geometric entities at asserted c
onnectivities');
#591=UNCERTAINTY_MEASURE_WITH_UNIT(LENGTH_MEASURE(1.E-6),#594,
'DISTANCE_ACCURACY_VALUE',
'Maximum model space distance between geometric entities at asserted c
onnectivities');
#592=(
GEOMETRIC_REPRESENTATION_CONTEXT(3)
GLOBAL_UNCERTAINTY_ASSIGNED_CONTEXT((#590))
GLOBAL_UNIT_ASSIGNED_CONTEXT((#594,#597,#595))
REPRESENTATION_CONTEXT('','3D')
);
#593=(
GEOMETRIC_REPRESENTATION_CONTEXT(3)
GLOBAL_UNCERTAINTY_ASSIGNED_CONTEXT((#591))
GLOBAL_UNIT_ASSIGNED_CONTEXT((#594,#597,#595))
REPRESENTATION_CONTEXT('','3D')
);
#594=(
LENGTH_UNIT()
NAMED_UNIT(*)
SI_UNIT(.MILLI.,.METRE.)
);
#595=(
NAMED_UNIT(*)
SI_UNIT($,.STERADIAN.)
SOLID_ANGLE_UNIT()
);
#596=DIMENSIONAL_EXPONENTS(0.,0.,0.,0.,0.,0.,0.);
#597=(
CONVERSION_BASED_UNIT('degree',#599)
NAMED_UNIT(#596)
PLANE_ANGLE_UNIT()
);
#598=(
NAMED_UNIT(*)
PLANE_ANGLE_UNIT()
SI_UNIT($,.RADIAN.)
);
#599=PLANE_ANGLE_MEASURE_WITH_UNIT(PLANE_ANGLE_MEASURE(0.01745329252),#598);
#600=SHAPE_DEFINITION_REPRESENTATION(#601,#602);
#601=PRODUCT_DEFINITION_SHAPE('',$,#604);
#602=SHAPE_REPRESENTATION('',(#354),#592);
#603=PRODUCT_DEFINITION_CONTEXT('part definition',#608,'design');
#604=PRODUCT_DEFINITION('060275','060275-01',#605,#603);
#605=PRODUCT_DEFINITION_FORMATION('',$,#610);
#606=PRODUCT_RELATED_PRODUCT_CATEGORY('060275-01','060275-01',(#610));
#607=APPLICATION_PROTOCOL_DEFINITION('international standard',
'automotive_design',2009,#608);
#608=APPLICATION_CONTEXT(
'Core Data for Automotive Mechanical Design Process');
#609=PRODUCT_CONTEXT('part definition',#608,'mechanical');
#610=PRODUCT('060275','060275-01','firkant - rektangular',(#609));
#611=PRESENTATION_STYLE_ASSIGNMENT((#612));
#612=SURFACE_STYLE_USAGE(.BOTH.,#613);
#613=SURFACE_SIDE_STYLE('',(#614));
#614=SURFACE_STYLE_FILL_AREA(#615);
#615=FILL_AREA_STYLE('',(#616));
#616=FILL_AREA_STYLE_COLOUR('',#617);
#617=COLOUR_RGB('',1.,1.,1.);
ENDSEC;
END-ISO-10303-21;
