ISO-10303-21;
HEADER;
/* Generated by software containing ST-Developer
 * from STEP Tools, Inc. (www.steptools.com) 
 */

FILE_DESCRIPTION(
/* description */ ('V-profiler'),
/* implementation_level */ '2;1');

FILE_NAME(
/* name */ 
'C:\\WF\\Designs\\Vare\\test Mirfit\\Profiles for e-com\\Angle profile
\\L50x50x6.stp',
/* time_stamp */ '2019-09-19T15:25:03+02:00',
/* author */ ('mma'),
/* organization */ (''),
/* preprocessor_version */ 'ST-DEVELOPER v16.5',
/* originating_system */ 'Autodesk Inventor 2017',
/* authorisation */ '0 mm^3');

FILE_SCHEMA (('AUTOMOTIVE_DESIGN { 1 0 10303 214 3 1 1 }'));
ENDSEC;

DATA;
#10=MECHANICAL_DESIGN_GEOMETRIC_PRESENTATION_REPRESENTATION('',(#13),#453);
#11=SHAPE_REPRESENTATION_RELATIONSHIP('SRR','None',#462,#12);
#12=ADVANCED_BREP_SHAPE_REPRESENTATION('',(#14),#452);
#13=STYLED_ITEM('',(#471),#14);
#14=MANIFOLD_SOLID_BREP('Solid1',#263);
#15=PLANE('',#274);
#16=PLANE('',#278);
#17=PLANE('',#282);
#18=PLANE('',#286);
#19=PLANE('',#290);
#20=PLANE('',#294);
#21=PLANE('',#295);
#22=PLANE('',#296);
#23=FACE_OUTER_BOUND('',#37,.T.);
#24=FACE_OUTER_BOUND('',#38,.T.);
#25=FACE_OUTER_BOUND('',#39,.T.);
#26=FACE_OUTER_BOUND('',#40,.T.);
#27=FACE_OUTER_BOUND('',#41,.T.);
#28=FACE_OUTER_BOUND('',#42,.T.);
#29=FACE_OUTER_BOUND('',#43,.T.);
#30=FACE_OUTER_BOUND('',#44,.T.);
#31=FACE_OUTER_BOUND('',#45,.T.);
#32=FACE_OUTER_BOUND('',#46,.T.);
#33=FACE_OUTER_BOUND('',#47,.T.);
#34=FACE_OUTER_BOUND('',#48,.T.);
#35=FACE_OUTER_BOUND('',#49,.T.);
#36=FACE_OUTER_BOUND('',#50,.T.);
#37=EDGE_LOOP('',(#171,#172,#173,#174));
#38=EDGE_LOOP('',(#175,#176,#177,#178));
#39=EDGE_LOOP('',(#179,#180,#181,#182));
#40=EDGE_LOOP('',(#183,#184,#185,#186));
#41=EDGE_LOOP('',(#187,#188,#189,#190));
#42=EDGE_LOOP('',(#191,#192,#193,#194));
#43=EDGE_LOOP('',(#195,#196,#197,#198));
#44=EDGE_LOOP('',(#199,#200,#201,#202));
#45=EDGE_LOOP('',(#203,#204,#205,#206));
#46=EDGE_LOOP('',(#207,#208,#209,#210));
#47=EDGE_LOOP('',(#211,#212,#213,#214));
#48=EDGE_LOOP('',(#215,#216,#217,#218));
#49=EDGE_LOOP('',(#219,#220,#221,#222,#223,#224,#225,#226,#227,#228,#229,
#230));
#50=EDGE_LOOP('',(#231,#232,#233,#234,#235,#236,#237,#238,#239,#240,#241,
#242));
#51=LINE('',#381,#75);
#52=LINE('',#384,#76);
#53=LINE('',#387,#77);
#54=LINE('',#389,#78);
#55=LINE('',#390,#79);
#56=LINE('',#395,#80);
#57=LINE('',#399,#81);
#58=LINE('',#401,#82);
#59=LINE('',#402,#83);
#60=LINE('',#407,#84);
#61=LINE('',#411,#85);
#62=LINE('',#413,#86);
#63=LINE('',#414,#87);
#64=LINE('',#419,#88);
#65=LINE('',#423,#89);
#66=LINE('',#425,#90);
#67=LINE('',#426,#91);
#68=LINE('',#431,#92);
#69=LINE('',#435,#93);
#70=LINE('',#437,#94);
#71=LINE('',#438,#95);
#72=LINE('',#443,#96);
#73=LINE('',#446,#97);
#74=LINE('',#447,#98);
#75=VECTOR('',#303,10.);
#76=VECTOR('',#306,10.);
#77=VECTOR('',#309,10.);
#78=VECTOR('',#310,10.);
#79=VECTOR('',#311,10.);
#80=VECTOR('',#316,10.);
#81=VECTOR('',#321,10.);
#82=VECTOR('',#322,10.);
#83=VECTOR('',#323,10.);
#84=VECTOR('',#328,10.);
#85=VECTOR('',#333,10.);
#86=VECTOR('',#334,10.);
#87=VECTOR('',#335,10.);
#88=VECTOR('',#340,10.);
#89=VECTOR('',#345,10.);
#90=VECTOR('',#346,10.);
#91=VECTOR('',#347,10.);
#92=VECTOR('',#352,10.);
#93=VECTOR('',#357,10.);
#94=VECTOR('',#358,10.);
#95=VECTOR('',#359,10.);
#96=VECTOR('',#364,10.);
#97=VECTOR('',#369,10.);
#98=VECTOR('',#370,10.);
#99=CIRCLE('',#272,0.1);
#100=CIRCLE('',#273,0.1);
#101=CIRCLE('',#276,4.);
#102=CIRCLE('',#277,4.);
#103=CIRCLE('',#280,0.1);
#104=CIRCLE('',#281,0.1);
#105=CIRCLE('',#284,0.1);
#106=CIRCLE('',#285,0.1);
#107=CIRCLE('',#288,7.);
#108=CIRCLE('',#289,7.);
#109=CIRCLE('',#292,0.1);
#110=CIRCLE('',#293,0.1);
#111=VERTEX_POINT('',#377);
#112=VERTEX_POINT('',#378);
#113=VERTEX_POINT('',#380);
#114=VERTEX_POINT('',#382);
#115=VERTEX_POINT('',#386);
#116=VERTEX_POINT('',#388);
#117=VERTEX_POINT('',#392);
#118=VERTEX_POINT('',#394);
#119=VERTEX_POINT('',#398);
#120=VERTEX_POINT('',#400);
#121=VERTEX_POINT('',#404);
#122=VERTEX_POINT('',#406);
#123=VERTEX_POINT('',#410);
#124=VERTEX_POINT('',#412);
#125=VERTEX_POINT('',#416);
#126=VERTEX_POINT('',#418);
#127=VERTEX_POINT('',#422);
#128=VERTEX_POINT('',#424);
#129=VERTEX_POINT('',#428);
#130=VERTEX_POINT('',#430);
#131=VERTEX_POINT('',#434);
#132=VERTEX_POINT('',#436);
#133=VERTEX_POINT('',#440);
#134=VERTEX_POINT('',#442);
#135=EDGE_CURVE('',#111,#112,#99,.T.);
#136=EDGE_CURVE('',#112,#113,#51,.T.);
#137=EDGE_CURVE('',#114,#113,#100,.T.);
#138=EDGE_CURVE('',#111,#114,#52,.T.);
#139=EDGE_CURVE('',#112,#115,#53,.T.);
#140=EDGE_CURVE('',#115,#116,#54,.T.);
#141=EDGE_CURVE('',#113,#116,#55,.T.);
#142=EDGE_CURVE('',#115,#117,#101,.T.);
#143=EDGE_CURVE('',#117,#118,#56,.T.);
#144=EDGE_CURVE('',#116,#118,#102,.T.);
#145=EDGE_CURVE('',#117,#119,#57,.T.);
#146=EDGE_CURVE('',#119,#120,#58,.T.);
#147=EDGE_CURVE('',#118,#120,#59,.T.);
#148=EDGE_CURVE('',#119,#121,#103,.T.);
#149=EDGE_CURVE('',#122,#121,#60,.T.);
#150=EDGE_CURVE('',#120,#122,#104,.T.);
#151=EDGE_CURVE('',#121,#123,#61,.T.);
#152=EDGE_CURVE('',#123,#124,#62,.T.);
#153=EDGE_CURVE('',#122,#124,#63,.T.);
#154=EDGE_CURVE('',#123,#125,#105,.T.);
#155=EDGE_CURVE('',#125,#126,#64,.T.);
#156=EDGE_CURVE('',#124,#126,#106,.T.);
#157=EDGE_CURVE('',#125,#127,#65,.T.);
#158=EDGE_CURVE('',#127,#128,#66,.T.);
#159=EDGE_CURVE('',#126,#128,#67,.T.);
#160=EDGE_CURVE('',#127,#129,#107,.T.);
#161=EDGE_CURVE('',#129,#130,#68,.T.);
#162=EDGE_CURVE('',#128,#130,#108,.T.);
#163=EDGE_CURVE('',#129,#131,#69,.T.);
#164=EDGE_CURVE('',#131,#132,#70,.T.);
#165=EDGE_CURVE('',#130,#132,#71,.T.);
#166=EDGE_CURVE('',#131,#133,#109,.T.);
#167=EDGE_CURVE('',#133,#134,#72,.T.);
#168=EDGE_CURVE('',#132,#134,#110,.T.);
#169=EDGE_CURVE('',#133,#111,#73,.T.);
#170=EDGE_CURVE('',#134,#114,#74,.T.);
#171=ORIENTED_EDGE('',*,*,#135,.T.);
#172=ORIENTED_EDGE('',*,*,#136,.T.);
#173=ORIENTED_EDGE('',*,*,#137,.F.);
#174=ORIENTED_EDGE('',*,*,#138,.F.);
#175=ORIENTED_EDGE('',*,*,#139,.T.);
#176=ORIENTED_EDGE('',*,*,#140,.T.);
#177=ORIENTED_EDGE('',*,*,#141,.F.);
#178=ORIENTED_EDGE('',*,*,#136,.F.);
#179=ORIENTED_EDGE('',*,*,#142,.T.);
#180=ORIENTED_EDGE('',*,*,#143,.T.);
#181=ORIENTED_EDGE('',*,*,#144,.F.);
#182=ORIENTED_EDGE('',*,*,#140,.F.);
#183=ORIENTED_EDGE('',*,*,#145,.T.);
#184=ORIENTED_EDGE('',*,*,#146,.T.);
#185=ORIENTED_EDGE('',*,*,#147,.F.);
#186=ORIENTED_EDGE('',*,*,#143,.F.);
#187=ORIENTED_EDGE('',*,*,#148,.T.);
#188=ORIENTED_EDGE('',*,*,#149,.F.);
#189=ORIENTED_EDGE('',*,*,#150,.F.);
#190=ORIENTED_EDGE('',*,*,#146,.F.);
#191=ORIENTED_EDGE('',*,*,#151,.T.);
#192=ORIENTED_EDGE('',*,*,#152,.T.);
#193=ORIENTED_EDGE('',*,*,#153,.F.);
#194=ORIENTED_EDGE('',*,*,#149,.T.);
#195=ORIENTED_EDGE('',*,*,#154,.T.);
#196=ORIENTED_EDGE('',*,*,#155,.T.);
#197=ORIENTED_EDGE('',*,*,#156,.F.);
#198=ORIENTED_EDGE('',*,*,#152,.F.);
#199=ORIENTED_EDGE('',*,*,#157,.T.);
#200=ORIENTED_EDGE('',*,*,#158,.T.);
#201=ORIENTED_EDGE('',*,*,#159,.F.);
#202=ORIENTED_EDGE('',*,*,#155,.F.);
#203=ORIENTED_EDGE('',*,*,#160,.T.);
#204=ORIENTED_EDGE('',*,*,#161,.T.);
#205=ORIENTED_EDGE('',*,*,#162,.F.);
#206=ORIENTED_EDGE('',*,*,#158,.F.);
#207=ORIENTED_EDGE('',*,*,#163,.T.);
#208=ORIENTED_EDGE('',*,*,#164,.T.);
#209=ORIENTED_EDGE('',*,*,#165,.F.);
#210=ORIENTED_EDGE('',*,*,#161,.F.);
#211=ORIENTED_EDGE('',*,*,#166,.T.);
#212=ORIENTED_EDGE('',*,*,#167,.T.);
#213=ORIENTED_EDGE('',*,*,#168,.F.);
#214=ORIENTED_EDGE('',*,*,#164,.F.);
#215=ORIENTED_EDGE('',*,*,#169,.T.);
#216=ORIENTED_EDGE('',*,*,#138,.T.);
#217=ORIENTED_EDGE('',*,*,#170,.F.);
#218=ORIENTED_EDGE('',*,*,#167,.F.);
#219=ORIENTED_EDGE('',*,*,#156,.T.);
#220=ORIENTED_EDGE('',*,*,#159,.T.);
#221=ORIENTED_EDGE('',*,*,#162,.T.);
#222=ORIENTED_EDGE('',*,*,#165,.T.);
#223=ORIENTED_EDGE('',*,*,#168,.T.);
#224=ORIENTED_EDGE('',*,*,#170,.T.);
#225=ORIENTED_EDGE('',*,*,#137,.T.);
#226=ORIENTED_EDGE('',*,*,#141,.T.);
#227=ORIENTED_EDGE('',*,*,#144,.T.);
#228=ORIENTED_EDGE('',*,*,#147,.T.);
#229=ORIENTED_EDGE('',*,*,#150,.T.);
#230=ORIENTED_EDGE('',*,*,#153,.T.);
#231=ORIENTED_EDGE('',*,*,#154,.F.);
#232=ORIENTED_EDGE('',*,*,#151,.F.);
#233=ORIENTED_EDGE('',*,*,#148,.F.);
#234=ORIENTED_EDGE('',*,*,#145,.F.);
#235=ORIENTED_EDGE('',*,*,#142,.F.);
#236=ORIENTED_EDGE('',*,*,#139,.F.);
#237=ORIENTED_EDGE('',*,*,#135,.F.);
#238=ORIENTED_EDGE('',*,*,#169,.F.);
#239=ORIENTED_EDGE('',*,*,#166,.F.);
#240=ORIENTED_EDGE('',*,*,#163,.F.);
#241=ORIENTED_EDGE('',*,*,#160,.F.);
#242=ORIENTED_EDGE('',*,*,#157,.F.);
#243=CYLINDRICAL_SURFACE('',#271,0.1);
#244=CYLINDRICAL_SURFACE('',#275,4.);
#245=CYLINDRICAL_SURFACE('',#279,0.1);
#246=CYLINDRICAL_SURFACE('',#283,0.1);
#247=CYLINDRICAL_SURFACE('',#287,7.);
#248=CYLINDRICAL_SURFACE('',#291,0.1);
#249=ADVANCED_FACE('',(#23),#243,.T.);
#250=ADVANCED_FACE('',(#24),#15,.T.);
#251=ADVANCED_FACE('',(#25),#244,.T.);
#252=ADVANCED_FACE('',(#26),#16,.T.);
#253=ADVANCED_FACE('',(#27),#245,.T.);
#254=ADVANCED_FACE('',(#28),#17,.T.);
#255=ADVANCED_FACE('',(#29),#246,.T.);
#256=ADVANCED_FACE('',(#30),#18,.T.);
#257=ADVANCED_FACE('',(#31),#247,.F.);
#258=ADVANCED_FACE('',(#32),#19,.T.);
#259=ADVANCED_FACE('',(#33),#248,.T.);
#260=ADVANCED_FACE('',(#34),#20,.T.);
#261=ADVANCED_FACE('',(#35),#21,.F.);
#262=ADVANCED_FACE('',(#36),#22,.T.);
#263=CLOSED_SHELL('',(#249,#250,#251,#252,#253,#254,#255,#256,#257,#258,
#259,#260,#261,#262));
#264=DATE_TIME_ROLE('creation_date');
#265=APPLIED_DATE_AND_TIME_ASSIGNMENT(#266,#264,(#464));
#266=DATE_AND_TIME(#267,#268);
#267=CALENDAR_DATE(2018,29,10);
#268=LOCAL_TIME(14,54,4.,#269);
#269=COORDINATED_UNIVERSAL_TIME_OFFSET(0,0,.BEHIND.);
#270=AXIS2_PLACEMENT_3D('placement',#375,#297,#298);
#271=AXIS2_PLACEMENT_3D('',#376,#299,#300);
#272=AXIS2_PLACEMENT_3D('',#379,#301,#302);
#273=AXIS2_PLACEMENT_3D('',#383,#304,#305);
#274=AXIS2_PLACEMENT_3D('',#385,#307,#308);
#275=AXIS2_PLACEMENT_3D('',#391,#312,#313);
#276=AXIS2_PLACEMENT_3D('',#393,#314,#315);
#277=AXIS2_PLACEMENT_3D('',#396,#317,#318);
#278=AXIS2_PLACEMENT_3D('',#397,#319,#320);
#279=AXIS2_PLACEMENT_3D('',#403,#324,#325);
#280=AXIS2_PLACEMENT_3D('',#405,#326,#327);
#281=AXIS2_PLACEMENT_3D('',#408,#329,#330);
#282=AXIS2_PLACEMENT_3D('',#409,#331,#332);
#283=AXIS2_PLACEMENT_3D('',#415,#336,#337);
#284=AXIS2_PLACEMENT_3D('',#417,#338,#339);
#285=AXIS2_PLACEMENT_3D('',#420,#341,#342);
#286=AXIS2_PLACEMENT_3D('',#421,#343,#344);
#287=AXIS2_PLACEMENT_3D('',#427,#348,#349);
#288=AXIS2_PLACEMENT_3D('',#429,#350,#351);
#289=AXIS2_PLACEMENT_3D('',#432,#353,#354);
#290=AXIS2_PLACEMENT_3D('',#433,#355,#356);
#291=AXIS2_PLACEMENT_3D('',#439,#360,#361);
#292=AXIS2_PLACEMENT_3D('',#441,#362,#363);
#293=AXIS2_PLACEMENT_3D('',#444,#365,#366);
#294=AXIS2_PLACEMENT_3D('',#445,#367,#368);
#295=AXIS2_PLACEMENT_3D('',#448,#371,#372);
#296=AXIS2_PLACEMENT_3D('',#449,#373,#374);
#297=DIRECTION('axis',(0.,0.,1.));
#298=DIRECTION('refdir',(1.,0.,0.));
#299=DIRECTION('center_axis',(0.,0.,1.));
#300=DIRECTION('ref_axis',(0.,1.,0.));
#301=DIRECTION('center_axis',(0.,0.,-1.));
#302=DIRECTION('ref_axis',(0.,1.,0.));
#303=DIRECTION('',(0.,0.,-1.));
#304=DIRECTION('center_axis',(0.,0.,-1.));
#305=DIRECTION('ref_axis',(0.,1.,0.));
#306=DIRECTION('',(0.,0.,-1.));
#307=DIRECTION('center_axis',(4.23287645554253E-17,-1.,0.));
#308=DIRECTION('ref_axis',(1.,4.23287645554254E-17,0.));
#309=DIRECTION('',(-1.,-4.23287645554253E-17,0.));
#310=DIRECTION('',(0.,0.,-1.));
#311=DIRECTION('',(-1.,-4.23287645554253E-17,0.));
#312=DIRECTION('center_axis',(0.,0.,1.));
#313=DIRECTION('ref_axis',(1.,4.16333634234434E-16,0.));
#314=DIRECTION('center_axis',(0.,0.,-1.));
#315=DIRECTION('ref_axis',(1.,4.16333634234434E-16,0.));
#316=DIRECTION('',(0.,0.,-1.));
#317=DIRECTION('center_axis',(0.,0.,-1.));
#318=DIRECTION('ref_axis',(1.,4.16333634234434E-16,0.));
#319=DIRECTION('center_axis',(-1.,-3.63195917301462E-16,0.));
#320=DIRECTION('ref_axis',(3.63195917301462E-16,-1.,0.));
#321=DIRECTION('',(-3.63195917301462E-16,1.,0.));
#322=DIRECTION('',(0.,0.,-1.));
#323=DIRECTION('',(-3.63195917301462E-16,1.,0.));
#324=DIRECTION('center_axis',(0.,0.,1.));
#325=DIRECTION('ref_axis',(6.93889390390738E-16,-1.,0.));
#326=DIRECTION('center_axis',(0.,0.,-1.));
#327=DIRECTION('ref_axis',(6.93889390390738E-16,-1.,0.));
#328=DIRECTION('',(0.,0.,1.));
#329=DIRECTION('center_axis',(0.,0.,-1.));
#330=DIRECTION('ref_axis',(6.93889390390738E-16,-1.,0.));
#331=DIRECTION('center_axis',(0.,1.,0.));
#332=DIRECTION('ref_axis',(-1.,0.,0.));
#333=DIRECTION('',(1.,0.,0.));
#334=DIRECTION('',(0.,0.,-1.));
#335=DIRECTION('',(1.,0.,0.));
#336=DIRECTION('center_axis',(0.,0.,1.));
#337=DIRECTION('ref_axis',(-1.,8.88178419700115E-14,0.));
#338=DIRECTION('center_axis',(0.,0.,-1.));
#339=DIRECTION('ref_axis',(-1.,8.88178419700115E-14,0.));
#340=DIRECTION('',(0.,0.,-1.));
#341=DIRECTION('center_axis',(0.,0.,-1.));
#342=DIRECTION('ref_axis',(-1.,8.88178419700115E-14,0.));
#343=DIRECTION('center_axis',(1.,4.81397517452642E-16,0.));
#344=DIRECTION('ref_axis',(-4.44089209850063E-16,1.,0.));
#345=DIRECTION('',(4.81397517452642E-16,-1.,0.));
#346=DIRECTION('',(0.,0.,-1.));
#347=DIRECTION('',(4.81397517452642E-16,-1.,0.));
#348=DIRECTION('center_axis',(0.,0.,1.));
#349=DIRECTION('ref_axis',(-1.,-6.34413156928661E-16,0.));
#350=DIRECTION('center_axis',(0.,0.,1.));
#351=DIRECTION('ref_axis',(-1.,-6.34413156928661E-16,0.));
#352=DIRECTION('',(0.,0.,-1.));
#353=DIRECTION('center_axis',(0.,0.,1.));
#354=DIRECTION('ref_axis',(-1.,-6.34413156928661E-16,0.));
#355=DIRECTION('center_axis',(-1.80524069044741E-16,1.,0.));
#356=DIRECTION('ref_axis',(-1.,-1.77635683940025E-16,0.));
#357=DIRECTION('',(1.,1.80524069044741E-16,0.));
#358=DIRECTION('',(0.,0.,-1.));
#359=DIRECTION('',(1.,1.80524069044741E-16,0.));
#360=DIRECTION('center_axis',(0.,0.,1.));
#361=DIRECTION('ref_axis',(-1.,0.,0.));
#362=DIRECTION('center_axis',(0.,0.,-1.));
#363=DIRECTION('ref_axis',(-1.,0.,0.));
#364=DIRECTION('',(0.,0.,-1.));
#365=DIRECTION('center_axis',(0.,0.,-1.));
#366=DIRECTION('ref_axis',(-1.,0.,0.));
#367=DIRECTION('center_axis',(1.,0.,0.));
#368=DIRECTION('ref_axis',(0.,1.,0.));
#369=DIRECTION('',(0.,-1.,0.));
#370=DIRECTION('',(0.,-1.,0.));
#371=DIRECTION('center_axis',(0.,0.,1.));
#372=DIRECTION('ref_axis',(1.,0.,0.));
#373=DIRECTION('center_axis',(0.,0.,1.));
#374=DIRECTION('ref_axis',(1.,0.,0.));
#375=CARTESIAN_POINT('',(0.,0.,0.));
#376=CARTESIAN_POINT('Origin',(49.9,0.0999999999999979,0.));
#377=CARTESIAN_POINT('',(50.,0.0999999999999979,1000.));
#378=CARTESIAN_POINT('',(49.9,3.05311331771918E-15,1000.));
#379=CARTESIAN_POINT('Origin',(49.9,0.0999999999999979,1000.));
#380=CARTESIAN_POINT('',(49.9,3.05311331771918E-15,0.));
#381=CARTESIAN_POINT('',(49.9,3.05311331771918E-15,0.));
#382=CARTESIAN_POINT('',(50.,0.0999999999999979,0.));
#383=CARTESIAN_POINT('Origin',(49.9,0.0999999999999979,0.));
#384=CARTESIAN_POINT('',(50.,0.0999999999999979,0.));
#385=CARTESIAN_POINT('Origin',(4.,1.11022302462516E-15,0.));
#386=CARTESIAN_POINT('',(4.,1.11022302462516E-15,1000.));
#387=CARTESIAN_POINT('',(14.5,0.,1000.));
#388=CARTESIAN_POINT('',(4.,1.11022302462516E-15,0.));
#389=CARTESIAN_POINT('',(4.,1.11022302462516E-15,0.));
#390=CARTESIAN_POINT('',(14.5,0.,0.));
#391=CARTESIAN_POINT('Origin',(4.,4.,0.));
#392=CARTESIAN_POINT('',(-1.66533453693773E-15,4.,1000.));
#393=CARTESIAN_POINT('Origin',(4.,4.,1000.));
#394=CARTESIAN_POINT('',(-1.66533453693773E-15,4.,0.));
#395=CARTESIAN_POINT('',(-1.66533453693773E-15,4.,0.));
#396=CARTESIAN_POINT('Origin',(4.,4.,0.));
#397=CARTESIAN_POINT('Origin',(-1.83360271410749E-14,49.9,0.));
#398=CARTESIAN_POINT('',(-1.83360271410749E-14,49.9,1000.));
#399=CARTESIAN_POINT('',(-1.33226762955019E-14,37.45,1000.));
#400=CARTESIAN_POINT('',(-1.83360271410749E-14,49.9,0.));
#401=CARTESIAN_POINT('',(-1.83360271410749E-14,49.9,0.));
#402=CARTESIAN_POINT('',(-1.33226762955019E-14,37.45,0.));
#403=CARTESIAN_POINT('Origin',(0.0999999999999812,49.9,0.));
#404=CARTESIAN_POINT('',(0.0999999999999811,50.,1000.));
#405=CARTESIAN_POINT('Origin',(0.0999999999999812,49.9,1000.));
#406=CARTESIAN_POINT('',(0.0999999999999811,50.,0.));
#407=CARTESIAN_POINT('',(0.0999999999999811,50.,0.));
#408=CARTESIAN_POINT('Origin',(0.0999999999999812,49.9,0.));
#409=CARTESIAN_POINT('Origin',(5.89999999999997,50.,0.));
#410=CARTESIAN_POINT('',(5.89999999999997,50.,1000.));
#411=CARTESIAN_POINT('',(15.45,50.,1000.));
#412=CARTESIAN_POINT('',(5.89999999999997,50.,0.));
#413=CARTESIAN_POINT('',(5.89999999999997,50.,0.));
#414=CARTESIAN_POINT('',(15.45,50.,0.));
#415=CARTESIAN_POINT('Origin',(5.89999999999997,49.9,0.));
#416=CARTESIAN_POINT('',(5.99999999999997,49.9,1000.));
#417=CARTESIAN_POINT('Origin',(5.89999999999997,49.9,1000.));
#418=CARTESIAN_POINT('',(5.99999999999997,49.9,0.));
#419=CARTESIAN_POINT('',(5.99999999999997,49.9,0.));
#420=CARTESIAN_POINT('Origin',(5.89999999999997,49.9,0.));
#421=CARTESIAN_POINT('Origin',(5.99999999999999,13.,0.));
#422=CARTESIAN_POINT('',(5.99999999999999,13.,1000.));
#423=CARTESIAN_POINT('',(5.99999999999999,19.,1000.));
#424=CARTESIAN_POINT('',(5.99999999999999,13.,0.));
#425=CARTESIAN_POINT('',(5.99999999999999,13.,0.));
#426=CARTESIAN_POINT('',(5.99999999999999,19.,0.));
#427=CARTESIAN_POINT('Origin',(13.,13.,0.));
#428=CARTESIAN_POINT('',(13.,6.,1000.));
#429=CARTESIAN_POINT('Origin',(13.,13.,1000.));
#430=CARTESIAN_POINT('',(13.,6.,0.));
#431=CARTESIAN_POINT('',(13.,6.,0.));
#432=CARTESIAN_POINT('Origin',(13.,13.,0.));
#433=CARTESIAN_POINT('Origin',(49.9,6.00000000000001,0.));
#434=CARTESIAN_POINT('',(49.9,6.00000000000001,1000.));
#435=CARTESIAN_POINT('',(37.45,6.00000000000001,1000.));
#436=CARTESIAN_POINT('',(49.9,6.00000000000001,0.));
#437=CARTESIAN_POINT('',(49.9,6.00000000000001,0.));
#438=CARTESIAN_POINT('',(37.45,6.00000000000001,0.));
#439=CARTESIAN_POINT('Origin',(49.9,5.90000000000001,0.));
#440=CARTESIAN_POINT('',(50.,5.90000000000001,1000.));
#441=CARTESIAN_POINT('Origin',(49.9,5.90000000000001,1000.));
#442=CARTESIAN_POINT('',(50.,5.90000000000001,0.));
#443=CARTESIAN_POINT('',(50.,5.90000000000001,0.));
#444=CARTESIAN_POINT('Origin',(49.9,5.90000000000001,0.));
#445=CARTESIAN_POINT('Origin',(50.,0.0999999999999979,0.));
#446=CARTESIAN_POINT('',(50.,12.55,1000.));
#447=CARTESIAN_POINT('',(50.,12.55,0.));
#448=CARTESIAN_POINT('Origin',(25.,25.,0.));
#449=CARTESIAN_POINT('Origin',(25.,25.,1000.));
#450=UNCERTAINTY_MEASURE_WITH_UNIT(LENGTH_MEASURE(0.01),#454,
'DISTANCE_ACCURACY_VALUE',
'Maximum model space distance between geometric entities at asserted c
onnectivities');
#451=UNCERTAINTY_MEASURE_WITH_UNIT(LENGTH_MEASURE(1.E-6),#454,
'DISTANCE_ACCURACY_VALUE',
'Maximum model space distance between geometric entities at asserted c
onnectivities');
#452=(
GEOMETRIC_REPRESENTATION_CONTEXT(3)
GLOBAL_UNCERTAINTY_ASSIGNED_CONTEXT((#450))
GLOBAL_UNIT_ASSIGNED_CONTEXT((#454,#457,#455))
REPRESENTATION_CONTEXT('','3D')
);
#453=(
GEOMETRIC_REPRESENTATION_CONTEXT(3)
GLOBAL_UNCERTAINTY_ASSIGNED_CONTEXT((#451))
GLOBAL_UNIT_ASSIGNED_CONTEXT((#454,#457,#455))
REPRESENTATION_CONTEXT('','3D')
);
#454=(
LENGTH_UNIT()
NAMED_UNIT(*)
SI_UNIT(.MILLI.,.METRE.)
);
#455=(
NAMED_UNIT(*)
SI_UNIT($,.STERADIAN.)
SOLID_ANGLE_UNIT()
);
#456=DIMENSIONAL_EXPONENTS(0.,0.,0.,0.,0.,0.,0.);
#457=(
CONVERSION_BASED_UNIT('degree',#459)
NAMED_UNIT(#456)
PLANE_ANGLE_UNIT()
);
#458=(
NAMED_UNIT(*)
PLANE_ANGLE_UNIT()
SI_UNIT($,.RADIAN.)
);
#459=PLANE_ANGLE_MEASURE_WITH_UNIT(PLANE_ANGLE_MEASURE(0.01745329252),#458);
#460=SHAPE_DEFINITION_REPRESENTATION(#461,#462);
#461=PRODUCT_DEFINITION_SHAPE('',$,#464);
#462=SHAPE_REPRESENTATION('',(#270),#452);
#463=PRODUCT_DEFINITION_CONTEXT('part definition',#468,'design');
#464=PRODUCT_DEFINITION('V  50x  50x  6 CE','070xxx_01',#465,#463);
#465=PRODUCT_DEFINITION_FORMATION('',$,#470);
#466=PRODUCT_RELATED_PRODUCT_CATEGORY('070xxx_01','070xxx_01',(#470));
#467=APPLICATION_PROTOCOL_DEFINITION('international standard',
'automotive_design',2009,#468);
#468=APPLICATION_CONTEXT(
'Core Data for Automotive Mechanical Design Process');
#469=PRODUCT_CONTEXT('part definition',#468,'mechanical');
#470=PRODUCT('V  50x  50x  6 CE','070xxx_01','V-profiler',(#469));
#471=PRESENTATION_STYLE_ASSIGNMENT((#472));
#472=SURFACE_STYLE_USAGE(.BOTH.,#473);
#473=SURFACE_SIDE_STYLE('',(#474));
#474=SURFACE_STYLE_FILL_AREA(#475);
#475=FILL_AREA_STYLE('',(#476));
#476=FILL_AREA_STYLE_COLOUR('',#477);
#477=COLOUR_RGB('',1.,1.,1.);
ENDSEC;
END-ISO-10303-21;
